ISO-10303-21;
HEADER;
FILE_DESCRIPTION (( 'STEP AP203' ),
    '1' );
FILE_NAME ('321534.step',
    '2021-12-02T07:17:59',
    ( '' ),
    ( '' ),
    'SwSTEP 2.0',
    'SolidWorks 2019',
    '' );
FILE_SCHEMA (( 'CONFIG_CONTROL_DESIGN' ));
ENDSEC;

DATA;
#1 = DIRECTION ( 'NONE',  ( 0.0000000000000000000, 1.000000000000000000, 0.0000000000000000000 ) ) ;
#2 = CARTESIAN_POINT ( 'NONE',  ( 8.987808100725203251E-14, -3.152498711492696494E-15, 25.74210550901360861 ) ) ;
#3 = EDGE_CURVE ( 'NONE', #116, #116, #152, .T. ) ;
#4 = DIRECTION ( 'NONE',  ( 0.0000000000000000000, 1.000000000000000000, 0.0000000000000000000 ) ) ;
#5 = DIRECTION ( 'NONE',  ( 4.275831445896958607E-31, 1.000000000000000000, 1.224646799147352961E-16 ) ) ;
#6 = AXIS2_PLACEMENT_3D ( 'NONE', #108, #114, #132 ) ;
#7 =( NAMED_UNIT ( * ) PLANE_ANGLE_UNIT ( ) SI_UNIT ( $, .RADIAN. ) );
#8 = CALENDAR_DATE ( 2021, 2, 12 ) ;
#9 =( LENGTH_UNIT ( ) NAMED_UNIT ( * ) SI_UNIT ( .MILLI., .METRE. ) );
#10 = EDGE_CURVE ( 'NONE', #99, #99, #59, .T. ) ;
#11 = ORGANIZATION ( 'UNSPECIFIED', 'UNSPECIFIED', '' ) ;
#12 = DATE_TIME_ROLE ( 'classification_date' ) ;
#13 = FACE_OUTER_BOUND ( 'NONE', #255, .T. ) ;
#14 = CONICAL_SURFACE ( 'NONE', #95, 1.539999999999998925, 0.7853981633974432830 ) ;
#15 = ADVANCED_FACE ( 'NONE', ( #185 ), #16, .F. ) ;
#16 = PLANE ( 'NONE',  #270 ) ;
#17 = EDGE_LOOP ( 'NONE', ( #258 ) ) ;
#18 = PERSON_AND_ORGANIZATION_ROLE ( 'classification_officer' ) ;
#19 = ORIENTED_EDGE ( 'NONE', *, *, #10, .F. ) ;
#20 = ORIENTED_EDGE ( 'NONE', *, *, #257, .F. ) ;
#21 = AXIS2_PLACEMENT_3D ( 'NONE', #91, #134, #60 ) ;
#22 = EDGE_LOOP ( 'NONE', ( #297 ) ) ;
#23 = FACE_BOUND ( 'NONE', #42, .T. ) ;
#24 = CARTESIAN_POINT ( 'NONE',  ( 8.849961221477468513E-14, 1.430384493975577209, 25.34729635533384240 ) ) ;
#25 = LOCAL_TIME ( 8, 17, 59.00000000000000000, #137 ) ;
#26 = ADVANCED_FACE ( 'NONE', ( #161 ), #272, .T. ) ;
#27 = FACE_OUTER_BOUND ( 'NONE', #113, .T. ) ;
#28 = FACE_OUTER_BOUND ( 'NONE', #17, .T. ) ;
#29 = FACE_OUTER_BOUND ( 'NONE', #301, .T. ) ;
#30 = AXIS2_PLACEMENT_3D ( 'NONE', #2, #219, #193 ) ;
#31 = VERTEX_POINT ( 'NONE', #81 ) ;
#32 = DATE_AND_TIME ( #54, #156 ) ;
#33 = CARTESIAN_POINT ( 'NONE',  ( 2.444036937190193601E-13, 1.199999999999992628, 70.00000000000000000 ) ) ;
#34 = APPROVAL_STATUS ( 'not_yet_approved' ) ;
#35 = ORIENTED_EDGE ( 'NONE', *, *, #235, .T. ) ;
#36 = ORIENTED_EDGE ( 'NONE', *, *, #55, .F. ) ;
#37 = EDGE_LOOP ( 'NONE', ( #234 ) ) ;
#38 = COORDINATED_UNIVERSAL_TIME_OFFSET ( 1, 0, .AHEAD. ) ;
#39 = EDGE_LOOP ( 'NONE', ( #35 ) ) ;
#40 = PERSON_AND_ORGANIZATION ( #256, #11 ) ;
#41 = EDGE_LOOP ( 'NONE', ( #130 ) ) ;
#42 = EDGE_LOOP ( 'NONE', ( #271 ) ) ;
#43 = ORIENTED_EDGE ( 'NONE', *, *, #93, .F. ) ;
#44 = AXIS2_PLACEMENT_3D ( 'NONE', #303, #120, #242 ) ;
#45 = DIRECTION ( 'NONE',  ( -3.491481338843133355E-15, 1.224646799147353207E-16, -1.000000000000000000 ) ) ;
#46 = CARTESIAN_POINT ( 'NONE',  ( 2.444036937190193601E-13, -8.572527594031472993E-15, 70.00000000000000000 ) ) ;
#47 = PRODUCT_RELATED_PRODUCT_CATEGORY ( 'detail', '', ( #111 ) ) ;
#48 = FACE_OUTER_BOUND ( 'NONE', #88, .T. ) ;
#49 = AXIS2_PLACEMENT_3D ( 'NONE', #241, #216, #237 ) ;
#50 = FACE_OUTER_BOUND ( 'NONE', #179, .T. ) ;
#51 = DIRECTION ( 'NONE',  ( -4.275831445896958607E-31, -1.000000000000000000, -1.224646799147353207E-16 ) ) ;
#52 = EDGE_CURVE ( 'NONE', #165, #165, #220, .T. ) ;
#53 = APPROVAL_PERSON_ORGANIZATION ( #248, #224, #79 ) ;
#54 = CALENDAR_DATE ( 2021, 2, 12 ) ;
#55 = EDGE_CURVE ( 'NONE', #197, #197, #71, .T. ) ;
#56 = APPROVAL_DATE_TIME ( #32, #286 ) ;
#57 = CC_DESIGN_SECURITY_CLASSIFICATION ( #168, ( #192 ) ) ;
#58 = APPROVAL_STATUS ( 'not_yet_approved' ) ;
#59 = CIRCLE ( 'NONE', #201, 1.399999999999999689 ) ;
#60 = DIRECTION ( 'NONE',  ( 3.751811579975137503E-31, 1.000000000000000000, 1.056041077096271319E-16 ) ) ;
#61 = CC_DESIGN_PERSON_AND_ORGANIZATION_ASSIGNMENT ( #178, #80, ( #115 ) ) ;
#62 = APPLICATION_CONTEXT ( 'configuration controlled 3d designs of mechanical parts and assemblies' ) ;
#63 = CIRCLE ( 'NONE', #139, 1.500000000000001110 ) ;
#64 = CARTESIAN_POINT ( 'NONE',  ( 5.840592393091885160E-31, -2.048604040855139832E-32, 1.672812146556425493E-16 ) ) ;
#65 = EDGE_LOOP ( 'NONE', ( #20 ) ) ;
#66 = ORIENTED_EDGE ( 'NONE', *, *, #217, .F. ) ;
#67 = CC_DESIGN_PERSON_AND_ORGANIZATION_ASSIGNMENT ( #40, #18, ( #168 ) ) ;
#68 = CALENDAR_DATE ( 2021, 2, 12 ) ;
#69 = DIRECTION ( 'NONE',  ( 3.491481338843133355E-15, -1.224646799147353207E-16, 1.000000000000000000 ) ) ;
#70 = CARTESIAN_POINT ( 'NONE',  ( 3.491481338843133355E-14, 1.154815032649628387E-32, 10.00000000000000000 ) ) ;
#71 = CIRCLE ( 'NONE', #244, 1.399999999999998357 ) ;
#72 = CIRCLE ( 'NONE', #202, 1.540000000000000036 ) ;
#73 = PLANE ( 'NONE',  #140 ) ;
#74 = CARTESIAN_POINT ( 'NONE',  ( 0.0000000000000000000, 0.0000000000000000000, 0.0000000000000000000 ) ) ;
#75 = MANIFOLD_SOLID_BREP ( 'Corps-Déplacer/Copier1[2]', #288 ) ;
#76 = FACE_OUTER_BOUND ( 'NONE', #138, .T. ) ;
#77 = CC_DESIGN_PERSON_AND_ORGANIZATION_ASSIGNMENT ( #180, #227, ( #192 ) ) ;
#78 = CARTESIAN_POINT ( 'NONE',  ( 8.728703347107833388E-14, 1.399999999999996803, 25.00000000000000000 ) ) ;
#79 = APPROVAL_ROLE ( '' ) ;
#80 = PERSON_AND_ORGANIZATION_ROLE ( 'creator' ) ;
#81 = CARTESIAN_POINT ( 'NONE',  ( 3.491481338843133355E-14, 1.539999999999998925, 10.00000000000000000 ) ) ;
#82 = DATE_AND_TIME ( #171, #253 ) ;
#83 = APPROVAL_PERSON_ORGANIZATION ( #299, #194, #254 ) ;
#84 = AXIS2_PLACEMENT_3D ( 'NONE', #210, #205, #302 ) ;
#85 = AXIS2_PLACEMENT_3D ( 'NONE', #70, #285, #51 ) ;
#86 = CARTESIAN_POINT ( 'NONE',  ( 8.728703347107827472E-16, -3.061616997868381169E-17, 0.2499999999999998335 ) ) ;
#87 = DIRECTION ( 'NONE',  ( -3.491481338843133355E-15, 1.224646799147353207E-16, -1.000000000000000000 ) ) ;
#88 = EDGE_LOOP ( 'NONE', ( #92 ) ) ;
#89 = ADVANCED_FACE ( 'NONE', ( #181, #13 ), #14, .T. ) ;
#90 = ORIENTED_EDGE ( 'NONE', *, *, #52, .F. ) ;
#91 = CARTESIAN_POINT ( 'NONE',  ( 8.728703347107827472E-16, -3.061616997868381169E-17, 0.2499999999999998335 ) ) ;
#92 = ORIENTED_EDGE ( 'NONE', *, *, #217, .T. ) ;
#93 = EDGE_CURVE ( 'NONE', #31, #31, #72, .T. ) ;
#94 = DIRECTION ( 'NONE',  ( -3.491481338843133355E-15, 1.224646799147353207E-16, -1.000000000000000000 ) ) ;
#95 = AXIS2_PLACEMENT_3D ( 'NONE', #86, #274, #252 ) ;
#96 = APPLICATION_CONTEXT ( 'configuration controlled 3d designs of mechanical parts and assemblies' ) ;
#97 = DIRECTION ( 'NONE',  ( 4.275831445896958607E-31, 1.000000000000000000, 1.224646799147353207E-16 ) ) ;
#98 = CARTESIAN_POINT ( 'NONE',  ( 0.0000000000000000000, 0.0000000000000000000, 0.0000000000000000000 ) ) ;
#99 = VERTEX_POINT ( 'NONE', #78 ) ;
#100 = COORDINATED_UNIVERSAL_TIME_OFFSET ( 1, 0, .AHEAD. ) ;
#101 = PERSON_AND_ORGANIZATION_ROLE ( 'design_owner' ) ;
#102 = CC_DESIGN_APPROVAL ( #224, ( #115 ) ) ;
#103 = PERSON_AND_ORGANIZATION ( #256, #11 ) ;
#104 = EDGE_CURVE ( 'NONE', #292, #292, #245, .T. ) ;
#105 = ORIENTED_EDGE ( 'NONE', *, *, #104, .T. ) ;
#106 = TOROIDAL_SURFACE ( 'NONE', #188, 3.399999999999999911, 2.000000000000000000 ) ;
#107 = PERSON_AND_ORGANIZATION ( #256, #11 ) ;
#108 = CARTESIAN_POINT ( 'NONE',  ( 3.491481338843133355E-14, 1.154815032649628387E-32, 10.00000000000000000 ) ) ;
#109 = EDGE_LOOP ( 'NONE', ( #66 ) ) ;
#110 = FACE_OUTER_BOUND ( 'NONE', #22, .T. ) ;
#111 = PRODUCT ( '321534', '321534', '', ( #223 ) ) ;
#112 = AXIS2_PLACEMENT_3D ( 'NONE', #226, #294, #126 ) ;
#113 = EDGE_LOOP ( 'NONE', ( #153 ) ) ;
#114 = DIRECTION ( 'NONE',  ( 3.491481338843133355E-15, -1.224646799147353207E-16, 1.000000000000000000 ) ) ;
#115 = PRODUCT_DEFINITION ( 'UNKNOWN', '', #192, #162 ) ;
#116 = VERTEX_POINT ( 'NONE', #187 ) ;
#117 =( GEOMETRIC_REPRESENTATION_CONTEXT ( 3 ) GLOBAL_UNCERTAINTY_ASSIGNED_CONTEXT ( ( #280 ) ) GLOBAL_UNIT_ASSIGNED_CONTEXT ( ( #9, #7, #195 ) ) REPRESENTATION_CONTEXT ( 'NONE', 'WORKASPACE' ) );
#118 = FACE_OUTER_BOUND ( 'NONE', #278, .T. ) ;
#119 = DIRECTION ( 'NONE',  ( -3.491481338843133355E-15, 1.224646799147353207E-16, -1.000000000000000000 ) ) ;
#120 = DIRECTION ( 'NONE',  ( -3.491481338843133355E-15, 1.224646799147353207E-16, -1.000000000000000000 ) ) ;
#121 = CC_DESIGN_PERSON_AND_ORGANIZATION_ASSIGNMENT ( #107, #229, ( #192 ) ) ;
#122 = DIRECTION ( 'NONE',  ( -3.491481338843133355E-15, 1.224646799147353207E-16, -1.000000000000000000 ) ) ;
#123 = AXIS2_PLACEMENT_3D ( 'NONE', #64, #277, #136 ) ;
#124 = VERTEX_POINT ( 'NONE', #225 ) ;
#125 = VERTEX_POINT ( 'NONE', #199 ) ;
#126 = DIRECTION ( 'NONE',  ( 1.000000000000000000, 0.0000000000000000000, 0.0000000000000000000 ) ) ;
#127 = AXIS2_PLACEMENT_3D ( 'NONE', #163, #265, #261 ) ;
#128 = ADVANCED_FACE ( 'NONE', ( #233, #110 ), #106, .F. ) ;
#129 = CARTESIAN_POINT ( 'NONE',  ( 3.576145261858904739E-14, 1.399999999999997025, 10.24248711305964932 ) ) ;
#130 = ORIENTED_EDGE ( 'NONE', *, *, #104, .F. ) ;
#131 = SHAPE_DEFINITION_REPRESENTATION ( #177, #196 ) ;
#132 = DIRECTION ( 'NONE',  ( -4.275831445896958607E-31, -1.000000000000000000, -1.224646799147353207E-16 ) ) ;
#133 = CC_DESIGN_APPROVAL ( #286, ( #192 ) ) ;
#134 = DIRECTION ( 'NONE',  ( -3.491481338843133355E-15, 1.224646799147353207E-16, -1.000000000000000000 ) ) ;
#135 = AXIS2_PLACEMENT_3D ( 'NONE', #74, #240, #97 ) ;
#136 = DIRECTION ( 'NONE',  ( 4.275831445896958607E-31, 1.000000000000000000, 1.224646799147353454E-16 ) ) ;
#137 = COORDINATED_UNIVERSAL_TIME_OFFSET ( 1, 0, .AHEAD. ) ;
#138 = EDGE_LOOP ( 'NONE', ( #36 ) ) ;
#139 = AXIS2_PLACEMENT_3D ( 'NONE', #211, #281, #1 ) ;
#140 = AXIS2_PLACEMENT_3D ( 'NONE', #170, #189, #144 ) ;
#141 = CARTESIAN_POINT ( 'NONE',  ( 3.576145261858904739E-14, -1.254342905831651537E-15, 10.24248711305964932 ) ) ;
#142 = CYLINDRICAL_SURFACE ( 'NONE', #44, 1.399999999999998801 ) ;
#143 = CC_DESIGN_APPROVAL ( #194, ( #168 ) ) ;
#144 = DIRECTION ( 'NONE',  ( 4.275831445896958607E-31, 1.000000000000000000, 1.224646799147353207E-16 ) ) ;
#145 = DIRECTION ( 'NONE',  ( 0.0000000000000000000, 1.000000000000000000, 0.0000000000000000000 ) ) ;
#146 = FACE_BOUND ( 'NONE', #249, .T. ) ;
#147 = APPROVAL_ROLE ( '' ) ;
#148 = ADVANCED_FACE ( 'NONE', ( #284 ), #262, .F. ) ;
#149 = AXIS2_PLACEMENT_3D ( 'NONE', #46, #122, #282 ) ;
#150 = AXIS2_PLACEMENT_3D ( 'NONE', #186, #169, #4 ) ;
#151 = CARTESIAN_POINT ( 'NONE',  ( 8.987808100725203251E-14, 1.499999999999992673, 25.74210550901360861 ) ) ;
#152 = CIRCLE ( 'NONE', #21, 1.539999999999998925 ) ;
#153 = ORIENTED_EDGE ( 'NONE', *, *, #235, .F. ) ;
#154 = DIRECTION ( 'NONE',  ( 0.0000000000000000000, 1.000000000000000000, 0.0000000000000000000 ) ) ;
#155 = DIRECTION ( 'NONE',  ( -3.491481338843133355E-15, 1.224646799147353207E-16, -1.000000000000000000 ) ) ;
#156 = LOCAL_TIME ( 8, 17, 59.00000000000000000, #268 ) ;
#157 = ADVANCED_FACE ( 'NONE', ( #27, #238 ), #283, .T. ) ;
#158 = DATE_AND_TIME ( #295, #198 ) ;
#159 = EDGE_LOOP ( 'NONE', ( #228 ) ) ;
#160 = CC_DESIGN_DATE_AND_TIME_ASSIGNMENT ( #207, #12, ( #168 ) ) ;
#161 = FACE_OUTER_BOUND ( 'NONE', #109, .T. ) ;
#162 = DESIGN_CONTEXT ( 'detailed design', #62, 'design' ) ;
#163 = CARTESIAN_POINT ( 'NONE',  ( 8.987808100725203251E-14, -3.152498711492696494E-15, 25.74210550901360861 ) ) ;
#164 = CONICAL_SURFACE ( 'NONE', #30, 1.499999999999996003, 0.1745329251994282016 ) ;
#165 = VERTEX_POINT ( 'NONE', #24 ) ;
#166 = FACE_OUTER_BOUND ( 'NONE', #65, .T. ) ;
#167 = ADVANCED_FACE ( 'NONE', ( #166, #263 ), #287, .T. ) ;
#168 = SECURITY_CLASSIFICATION ( '', '', #204 ) ;
#169 = DIRECTION ( 'NONE',  ( -3.491481338843133355E-15, 1.224646799147353207E-16, -1.000000000000000000 ) ) ;
#170 = CARTESIAN_POINT ( 'NONE',  ( 2.444036937190193601E-13, 8.998558695971026591E-33, 70.00000000000000000 ) ) ;
#171 = CALENDAR_DATE ( 2021, 2, 12 ) ;
#172 = ADVANCED_FACE ( 'NONE', ( #29 ), #73, .F. ) ;
#173 = VERTEX_POINT ( 'NONE', #151 ) ;
#174 = APPLICATION_PROTOCOL_DEFINITION ( 'international standard', 'config_control_design', 1994, #62 ) ;
#175 = MANIFOLD_SOLID_BREP ( 'Corps-Déplacer/Copier1[1]', #214 ) ;
#176 = DATE_AND_TIME ( #8, #291 ) ;
#177 = PRODUCT_DEFINITION_SHAPE ( 'NONE', 'NONE',  #115 ) ;
#178 = PERSON_AND_ORGANIZATION ( #256, #11 ) ;
#179 = EDGE_LOOP ( 'NONE', ( #43 ) ) ;
#180 = PERSON_AND_ORGANIZATION ( #256, #11 ) ;
#181 = FACE_BOUND ( 'NONE', #41, .T. ) ;
#182 = DIRECTION ( 'NONE',  ( 0.0000000000000000000, 1.000000000000000000, 0.0000000000000000000 ) ) ;
#183 = EDGE_LOOP ( 'NONE', ( #259 ) ) ;
#184 = APPROVAL_DATE_TIME ( #158, #194 ) ;
#185 = FACE_OUTER_BOUND ( 'NONE', #231, .T. ) ;
#186 = CARTESIAN_POINT ( 'NONE',  ( 3.491481338843133355E-14, -1.224646799147353256E-15, 10.00000000000000000 ) ) ;
#187 = CARTESIAN_POINT ( 'NONE',  ( 8.728703347107833388E-16, 1.539999999999998925, 0.2500000000000000000 ) ) ;
#188 = AXIS2_PLACEMENT_3D ( 'NONE', #267, #119, #191 ) ;
#189 = DIRECTION ( 'NONE',  ( -3.491481338843133355E-15, 1.224646799147353207E-16, -1.000000000000000000 ) ) ;
#190 = ADVANCED_FACE ( 'NONE', ( #146, #215 ), #164, .T. ) ;
#191 = DIRECTION ( 'NONE',  ( 4.275831445896958607E-31, 1.000000000000000000, 1.224646799147353207E-16 ) ) ;
#192 = PRODUCT_DEFINITION_FORMATION_WITH_SPECIFIED_SOURCE ( 'ANY', '', #111, .NOT_KNOWN. ) ;
#193 = DIRECTION ( 'NONE',  ( 0.0000000000000000000, -1.000000000000000000, 0.0000000000000000000 ) ) ;
#194 = APPROVAL ( #232, 'UNSPECIFIED' ) ;
#195 =( NAMED_UNIT ( * ) SI_UNIT ( $, .STERADIAN. ) SOLID_ANGLE_UNIT ( ) );
#196 = ADVANCED_BREP_SHAPE_REPRESENTATION ( '321534', ( #175, #75, #112 ), #117 ) ;
#197 = VERTEX_POINT ( 'NONE', #129 ) ;
#198 = LOCAL_TIME ( 8, 17, 59.00000000000000000, #38 ) ;
#199 = CARTESIAN_POINT ( 'NONE',  ( 2.433562493173664138E-13, 1.499999999999992673, 69.70000000000001705 ) ) ;
#200 = CC_DESIGN_DATE_AND_TIME_ASSIGNMENT ( #176, #289, ( #115 ) ) ;
#201 = AXIS2_PLACEMENT_3D ( 'NONE', #206, #155, #260 ) ;
#202 = AXIS2_PLACEMENT_3D ( 'NONE', #298, #87, #182 ) ;
#203 = ORIENTED_EDGE ( 'NONE', *, *, #3, .T. ) ;
#204 = SECURITY_CLASSIFICATION_LEVEL ( 'unclassified' ) ;
#205 = DIRECTION ( 'NONE',  ( -3.491481338843133355E-15, 1.224646799147353207E-16, -1.000000000000000000 ) ) ;
#206 = CARTESIAN_POINT ( 'NONE',  ( 8.728703347107833388E-14, -3.061616997868383043E-15, 25.00000000000000000 ) ) ;
#207 = DATE_AND_TIME ( #68, #25 ) ;
#208 = ORIENTED_EDGE ( 'NONE', *, *, #290, .F. ) ;
#209 = ADVANCED_FACE ( 'NONE', ( #76, #28 ), #142, .T. ) ;
#210 = CARTESIAN_POINT ( 'NONE',  ( 8.849961221477468513E-14, -3.104148534859896361E-15, 25.34729635533384240 ) ) ;
#211 = CARTESIAN_POINT ( 'NONE',  ( 2.433562493173664138E-13, -8.535788190057053710E-15, 69.70000000000001705 ) ) ;
#212 = ADVANCED_FACE ( 'NONE', ( #118, #48 ), #213, .T. ) ;
#213 = CYLINDRICAL_SURFACE ( 'NONE', #296, 1.539999999999999591 ) ;
#214 = CLOSED_SHELL ( 'NONE', ( #148, #266, #209, #128, #190, #167, #157, #172 ) ) ;
#215 = FACE_OUTER_BOUND ( 'NONE', #159, .T. ) ;
#216 = DIRECTION ( 'NONE',  ( -3.491481338843133355E-15, 1.224646799147353207E-16, -1.000000000000000000 ) ) ;
#217 = EDGE_CURVE ( 'NONE', #124, #124, #221, .T. ) ;
#218 = CIRCLE ( 'NONE', #49, 1.200000000000001510 ) ;
#219 = DIRECTION ( 'NONE',  ( 3.491481338843133355E-15, -1.224646799147353207E-16, 1.000000000000000000 ) ) ;
#220 = CIRCLE ( 'NONE', #84, 1.430384493975580318 ) ;
#221 = CIRCLE ( 'NONE', #150, 1.540000000000000036 ) ;
#222 = APPLICATION_PROTOCOL_DEFINITION ( 'international standard', 'config_control_design', 1994, #96 ) ;
#223 = MECHANICAL_CONTEXT ( 'NONE', #96, 'mechanical' ) ;
#224 = APPROVAL ( #34, 'UNSPECIFIED' ) ;
#225 = CARTESIAN_POINT ( 'NONE',  ( 3.491481338843133355E-14, 1.539999999999998925, 10.00000000000000000 ) ) ;
#226 = CARTESIAN_POINT ( 'NONE',  ( 0.0000000000000000000, 0.0000000000000000000, 0.0000000000000000000 ) ) ;
#227 = PERSON_AND_ORGANIZATION_ROLE ( 'design_supplier' ) ;
#228 = ORIENTED_EDGE ( 'NONE', *, *, #257, .T. ) ;
#229 = PERSON_AND_ORGANIZATION_ROLE ( 'creator' ) ;
#230 = ORIENTED_EDGE ( 'NONE', *, *, #3, .F. ) ;
#231 = EDGE_LOOP ( 'NONE', ( #105 ) ) ;
#232 = APPROVAL_STATUS ( 'not_yet_approved' ) ;
#233 = FACE_OUTER_BOUND ( 'NONE', #251, .T. ) ;
#234 = ORIENTED_EDGE ( 'NONE', *, *, #93, .T. ) ;
#235 = EDGE_CURVE ( 'NONE', #125, #125, #63, .T. ) ;
#236 = CONICAL_SURFACE ( 'NONE', #275, 1.399999999999998357, 0.5235987755982923764 ) ;
#237 = DIRECTION ( 'NONE',  ( 0.0000000000000000000, 1.000000000000000000, 0.0000000000000000000 ) ) ;
#238 = FACE_BOUND ( 'NONE', #183, .T. ) ;
#239 = CIRCLE ( 'NONE', #127, 1.499999999999996003 ) ;
#240 = DIRECTION ( 'NONE',  ( -3.491481338843133355E-15, 1.224646799147353207E-16, -1.000000000000000000 ) ) ;
#241 = CARTESIAN_POINT ( 'NONE',  ( 2.444036937190193601E-13, -8.572527594031472993E-15, 70.00000000000000000 ) ) ;
#242 = DIRECTION ( 'NONE',  ( 4.275831445896958607E-31, 1.000000000000000000, 1.224646799147353207E-16 ) ) ;
#243 = VERTEX_POINT ( 'NONE', #33 ) ;
#244 = AXIS2_PLACEMENT_3D ( 'NONE', #273, #250, #154 ) ;
#245 = CIRCLE ( 'NONE', #123, 1.290000000000001590 ) ;
#246 = APPROVAL_DATE_TIME ( #82, #224 ) ;
#247 = CARTESIAN_POINT ( 'NONE',  ( 1.135641495829896858E-30, 1.290000000000001590, 3.252606517456513302E-16 ) ) ;
#248 = PERSON_AND_ORGANIZATION ( #256, #11 ) ;
#249 = EDGE_LOOP ( 'NONE', ( #90 ) ) ;
#250 = DIRECTION ( 'NONE',  ( -3.491481338843133355E-15, 1.224646799147353207E-16, -1.000000000000000000 ) ) ;
#251 = EDGE_LOOP ( 'NONE', ( #19 ) ) ;
#252 = DIRECTION ( 'NONE',  ( -3.751811579975137503E-31, -1.000000000000000000, -1.056041077096271319E-16 ) ) ;
#253 = LOCAL_TIME ( 8, 17, 59.00000000000000000, #100 ) ;
#254 = APPROVAL_ROLE ( '' ) ;
#255 = EDGE_LOOP ( 'NONE', ( #203 ) ) ;
#256 = PERSON ( 'UNSPECIFIED', 'UNSPECIFIED', 'UNSPECIFIED', ('UNSPECIFIED'), ('UNSPECIFIED'), ('UNSPECIFIED') ) ;
#257 = EDGE_CURVE ( 'NONE', #173, #173, #239, .T. ) ;
#258 = ORIENTED_EDGE ( 'NONE', *, *, #10, .T. ) ;
#259 = ORIENTED_EDGE ( 'NONE', *, *, #290, .T. ) ;
#260 = DIRECTION ( 'NONE',  ( 0.0000000000000000000, 1.000000000000000000, 0.0000000000000000000 ) ) ;
#261 = DIRECTION ( 'NONE',  ( 0.0000000000000000000, 1.000000000000000000, 0.0000000000000000000 ) ) ;
#262 = PLANE ( 'NONE',  #85 ) ;
#263 = FACE_OUTER_BOUND ( 'NONE', #39, .T. ) ;
#264 = APPROVAL_PERSON_ORGANIZATION ( #293, #286, #147 ) ;
#265 = DIRECTION ( 'NONE',  ( -3.491481338843133355E-15, 1.224646799147353207E-16, -1.000000000000000000 ) ) ;
#266 = ADVANCED_FACE ( 'NONE', ( #50, #23 ), #236, .T. ) ;
#267 = CARTESIAN_POINT ( 'NONE',  ( 8.728703347107833388E-14, -3.035766082959412415E-15, 25.00000000000000000 ) ) ;
#268 = COORDINATED_UNIVERSAL_TIME_OFFSET ( 1, 0, .AHEAD. ) ;
#269 = COORDINATED_UNIVERSAL_TIME_OFFSET ( 1, 0, .AHEAD. ) ;
#270 = AXIS2_PLACEMENT_3D ( 'NONE', #279, #69, #300 ) ;
#271 = ORIENTED_EDGE ( 'NONE', *, *, #55, .T. ) ;
#272 = PLANE ( 'NONE',  #6 ) ;
#273 = CARTESIAN_POINT ( 'NONE',  ( 3.576145261858904739E-14, -1.254342905831651537E-15, 10.24248711305964932 ) ) ;
#274 = DIRECTION ( 'NONE',  ( 3.491481338843133355E-15, -1.224646799147353207E-16, 1.000000000000000000 ) ) ;
#275 = AXIS2_PLACEMENT_3D ( 'NONE', #141, #45, #145 ) ;
#276 = CC_DESIGN_PERSON_AND_ORGANIZATION_ASSIGNMENT ( #103, #101, ( #111 ) ) ;
#277 = DIRECTION ( 'NONE',  ( -3.491481338843133355E-15, 1.224646799147353207E-16, -1.000000000000000000 ) ) ;
#278 = EDGE_LOOP ( 'NONE', ( #230 ) ) ;
#279 = CARTESIAN_POINT ( 'NONE',  ( 2.920296196545942580E-31, -1.024302020427569916E-32, 8.364060732782127465E-17 ) ) ;
#280 = UNCERTAINTY_MEASURE_WITH_UNIT (LENGTH_MEASURE( 1.000000000000000082E-05 ), #9, 'distance_accuracy_value', 'NONE');
#281 = DIRECTION ( 'NONE',  ( -3.491481338843133355E-15, 1.224646799147353207E-16, -1.000000000000000000 ) ) ;
#282 = DIRECTION ( 'NONE',  ( 0.0000000000000000000, 1.000000000000000000, 0.0000000000000000000 ) ) ;
#283 = CONICAL_SURFACE ( 'NONE', #149, 1.200000000000001510, 0.7853981633974566057 ) ;
#284 = FACE_OUTER_BOUND ( 'NONE', #37, .T. ) ;
#285 = DIRECTION ( 'NONE',  ( 3.491481338843133355E-15, -1.224646799147353207E-16, 1.000000000000000000 ) ) ;
#286 = APPROVAL ( #58, 'UNSPECIFIED' ) ;
#287 = CYLINDRICAL_SURFACE ( 'NONE', #135, 1.499999999999998446 ) ;
#288 = CLOSED_SHELL ( 'NONE', ( #15, #89, #212, #26 ) ) ;
#289 = DATE_TIME_ROLE ( 'creation_date' ) ;
#290 = EDGE_CURVE ( 'NONE', #243, #243, #218, .T. ) ;
#291 = LOCAL_TIME ( 8, 17, 59.00000000000000000, #269 ) ;
#292 = VERTEX_POINT ( 'NONE', #247 ) ;
#293 = PERSON_AND_ORGANIZATION ( #256, #11 ) ;
#294 = DIRECTION ( 'NONE',  ( 0.0000000000000000000, 0.0000000000000000000, 1.000000000000000000 ) ) ;
#295 = CALENDAR_DATE ( 2021, 2, 12 ) ;
#296 = AXIS2_PLACEMENT_3D ( 'NONE', #98, #94, #5 ) ;
#297 = ORIENTED_EDGE ( 'NONE', *, *, #52, .T. ) ;
#298 = CARTESIAN_POINT ( 'NONE',  ( 3.491481338843133355E-14, -1.224646799147353256E-15, 10.00000000000000000 ) ) ;
#299 = PERSON_AND_ORGANIZATION ( #256, #11 ) ;
#300 = DIRECTION ( 'NONE',  ( -4.275831445896958607E-31, -1.000000000000000000, -1.224646799147353207E-16 ) ) ;
#301 = EDGE_LOOP ( 'NONE', ( #208 ) ) ;
#302 = DIRECTION ( 'NONE',  ( 0.0000000000000000000, 1.000000000000000000, 0.0000000000000000000 ) ) ;
#303 = CARTESIAN_POINT ( 'NONE',  ( 0.0000000000000000000, 0.0000000000000000000, 0.0000000000000000000 ) ) ;
ENDSEC;
END-ISO-10303-21;
