ISO-10303-21;
HEADER;
FILE_DESCRIPTION (( 'STEP AP203' ),
    '1' );
FILE_NAME ('321533.step',
    '2021-12-02T07:17:58',
    ( '' ),
    ( '' ),
    'SwSTEP 2.0',
    'SolidWorks 2019',
    '' );
FILE_SCHEMA (( 'CONFIG_CONTROL_DESIGN' ));
ENDSEC;

DATA;
#1 =( GEOMETRIC_REPRESENTATION_CONTEXT ( 3 ) GLOBAL_UNCERTAINTY_ASSIGNED_CONTEXT ( ( #34 ) ) GLOBAL_UNIT_ASSIGNED_CONTEXT ( ( #171, #262, #153 ) ) REPRESENTATION_CONTEXT ( 'NONE', 'WORKASPACE' ) );
#2 = COORDINATED_UNIVERSAL_TIME_OFFSET ( 1, 0, .AHEAD. ) ;
#3 = EDGE_LOOP ( 'NONE', ( #55 ) ) ;
#4 = EDGE_CURVE ( 'NONE', #59, #59, #119, .T. ) ;
#5 = AXIS2_PLACEMENT_3D ( 'NONE', #295, #87, #170 ) ;
#6 = VERTEX_POINT ( 'NONE', #80 ) ;
#7 = DIRECTION ( 'NONE',  ( 0.0000000000000000000, 1.000000000000000000, 0.0000000000000000000 ) ) ;
#8 = VERTEX_POINT ( 'NONE', #204 ) ;
#9 = EDGE_LOOP ( 'NONE', ( #155 ) ) ;
#10 = EDGE_CURVE ( 'NONE', #179, #179, #45, .T. ) ;
#11 = ORIENTED_EDGE ( 'NONE', *, *, #64, .T. ) ;
#12 = DIRECTION ( 'NONE',  ( -4.275831445896958607E-31, -1.000000000000000000, -1.224646799147353207E-16 ) ) ;
#13 = APPROVAL ( #172, 'UNSPECIFIED' ) ;
#14 = PLANE ( 'NONE',  #156 ) ;
#15 = AXIS2_PLACEMENT_3D ( 'NONE', #130, #227, #62 ) ;
#16 = DIRECTION ( 'NONE',  ( -3.491481338843133355E-15, 1.224646799147353207E-16, -1.000000000000000000 ) ) ;
#17 = DIRECTION ( 'NONE',  ( -3.491481338843133355E-15, 1.224646799147353207E-16, -1.000000000000000000 ) ) ;
#18 = CC_DESIGN_PERSON_AND_ORGANIZATION_ASSIGNMENT ( #122, #214, ( #37 ) ) ;
#19 = PRODUCT_DEFINITION_SHAPE ( 'NONE', 'NONE',  #37 ) ;
#20 = FACE_OUTER_BOUND ( 'NONE', #107, .T. ) ;
#21 = AXIS2_PLACEMENT_3D ( 'NONE', #30, #229, #7 ) ;
#22 = PERSON_AND_ORGANIZATION_ROLE ( 'design_owner' ) ;
#23 = APPLICATION_PROTOCOL_DEFINITION ( 'international standard', 'config_control_design', 1994, #287 ) ;
#24 = CALENDAR_DATE ( 2021, 2, 12 ) ;
#25 = PERSON_AND_ORGANIZATION ( #223, #133 ) ;
#26 = ORIENTED_EDGE ( 'NONE', *, *, #159, .T. ) ;
#27 = ADVANCED_FACE ( 'NONE', ( #82, #135 ), #57, .T. ) ;
#28 = VERTEX_POINT ( 'NONE', #128 ) ;
#29 = AXIS2_PLACEMENT_3D ( 'NONE', #189, #66, #187 ) ;
#30 = CARTESIAN_POINT ( 'NONE',  ( 3.491481338843133355E-14, -1.224646799147353256E-15, 10.00000000000000000 ) ) ;
#31 = FACE_OUTER_BOUND ( 'NONE', #263, .T. ) ;
#32 = ORIENTED_EDGE ( 'NONE', *, *, #98, .F. ) ;
#33 = DIRECTION ( 'NONE',  ( 0.0000000000000000000, 1.000000000000000000, 0.0000000000000000000 ) ) ;
#34 = UNCERTAINTY_MEASURE_WITH_UNIT (LENGTH_MEASURE( 1.000000000000000082E-05 ), #171, 'distance_accuracy_value', 'NONE');
#35 = CARTESIAN_POINT ( 'NONE',  ( 3.491481338843133355E-14, 1.151065633192973716E-32, 10.00000000000000000 ) ) ;
#36 = ORIENTED_EDGE ( 'NONE', *, *, #271, .T. ) ;
#37 = PRODUCT_DEFINITION ( 'UNKNOWN', '', #246, #106 ) ;
#38 = FACE_OUTER_BOUND ( 'NONE', #217, .T. ) ;
#39 = CARTESIAN_POINT ( 'NONE',  ( 0.0000000000000000000, 0.0000000000000000000, 0.0000000000000000000 ) ) ;
#40 = EDGE_CURVE ( 'NONE', #226, #226, #225, .T. ) ;
#41 = DIRECTION ( 'NONE',  ( -3.491481338843133355E-15, 1.224646799147353207E-16, -1.000000000000000000 ) ) ;
#42 = COORDINATED_UNIVERSAL_TIME_OFFSET ( 1, 0, .AHEAD. ) ;
#43 = APPROVAL_PERSON_ORGANIZATION ( #285, #146, #99 ) ;
#44 = CARTESIAN_POINT ( 'NONE',  ( 8.728703347107833388E-14, -3.035766082959412415E-15, 25.00000000000000000 ) ) ;
#45 = CIRCLE ( 'NONE', #224, 1.399999999999998357 ) ;
#46 = DATE_AND_TIME ( #166, #257 ) ;
#47 = CIRCLE ( 'NONE', #29, 1.399999999999999689 ) ;
#48 = DIRECTION ( 'NONE',  ( 0.0000000000000000000, 0.0000000000000000000, 1.000000000000000000 ) ) ;
#49 = ORIENTED_EDGE ( 'NONE', *, *, #159, .F. ) ;
#50 = CALENDAR_DATE ( 2021, 2, 12 ) ;
#51 = MECHANICAL_CONTEXT ( 'NONE', #287, 'mechanical' ) ;
#52 = EDGE_CURVE ( 'NONE', #8, #8, #236, .T. ) ;
#53 = DATE_AND_TIME ( #24, #185 ) ;
#54 = CARTESIAN_POINT ( 'NONE',  ( 8.728703347107833388E-16, 1.534999999999998588, 0.2500000000000000000 ) ) ;
#55 = ORIENTED_EDGE ( 'NONE', *, *, #261, .F. ) ;
#56 = CARTESIAN_POINT ( 'NONE',  ( 0.0000000000000000000, 0.0000000000000000000, 0.0000000000000000000 ) ) ;
#57 = CONICAL_SURFACE ( 'NONE', #63, 1.399999999999998357, 0.5235987755982928205 ) ;
#58 = EDGE_LOOP ( 'NONE', ( #160 ) ) ;
#59 = VERTEX_POINT ( 'NONE', #269 ) ;
#60 = ORIENTED_EDGE ( 'NONE', *, *, #52, .F. ) ;
#61 = CC_DESIGN_APPROVAL ( #146, ( #199 ) ) ;
#62 = DIRECTION ( 'NONE',  ( 0.0000000000000000000, 1.000000000000000000, 0.0000000000000000000 ) ) ;
#63 = AXIS2_PLACEMENT_3D ( 'NONE', #228, #243, #273 ) ;
#64 = EDGE_CURVE ( 'NONE', #127, #127, #284, .T. ) ;
#65 = DIRECTION ( 'NONE',  ( 3.764032464600464538E-31, 1.000000000000000000, 1.059480950311568861E-16 ) ) ;
#66 = DIRECTION ( 'NONE',  ( -3.491481338843133355E-15, 1.224646799147353207E-16, -1.000000000000000000 ) ) ;
#67 = CARTESIAN_POINT ( 'NONE',  ( 8.728703347107827472E-16, -3.061616997868381169E-17, 0.2499999999999998335 ) ) ;
#68 = DIRECTION ( 'NONE',  ( -3.491481338843133355E-15, 1.224646799147353207E-16, -1.000000000000000000 ) ) ;
#69 = CARTESIAN_POINT ( 'NONE',  ( 0.0000000000000000000, 0.0000000000000000000, 0.0000000000000000000 ) ) ;
#70 = ADVANCED_FACE ( 'NONE', ( #162 ), #248, .T. ) ;
#71 = CIRCLE ( 'NONE', #5, 1.200000000000001510 ) ;
#72 = APPROVAL_STATUS ( 'not_yet_approved' ) ;
#73 = APPROVAL_PERSON_ORGANIZATION ( #239, #13, #260 ) ;
#74 = PERSON_AND_ORGANIZATION_ROLE ( 'classification_officer' ) ;
#75 = APPROVAL ( #215, 'UNSPECIFIED' ) ;
#76 = APPLICATION_PROTOCOL_DEFINITION ( 'international standard', 'config_control_design', 1994, #123 ) ;
#77 = VERTEX_POINT ( 'NONE', #54 ) ;
#78 = DIRECTION ( 'NONE',  ( -3.491481338843133355E-15, 1.224646799147353207E-16, -1.000000000000000000 ) ) ;
#79 = ORIENTED_EDGE ( 'NONE', *, *, #4, .T. ) ;
#80 = CARTESIAN_POINT ( 'NONE',  ( 1.135641495829896858E-30, 1.285000000000001474, 3.252606517456513302E-16 ) ) ;
#81 = PRODUCT ( '321533', '321533', '', ( #51 ) ) ;
#82 = FACE_OUTER_BOUND ( 'NONE', #108, .T. ) ;
#83 = EDGE_LOOP ( 'NONE', ( #49 ) ) ;
#84 = LOCAL_TIME ( 8, 17, 58.00000000000000000, #124 ) ;
#85 = CARTESIAN_POINT ( 'NONE',  ( 2.930985775160685375E-31, -1.028051419884224861E-32, 8.394676902760814309E-17 ) ) ;
#86 = AXIS2_PLACEMENT_3D ( 'NONE', #39, #191, #277 ) ;
#87 = DIRECTION ( 'NONE',  ( -3.491481338843133355E-15, 1.224646799147353207E-16, -1.000000000000000000 ) ) ;
#88 = CARTESIAN_POINT ( 'NONE',  ( 8.728703347107827472E-16, -3.061616997868381169E-17, 0.2499999999999998335 ) ) ;
#89 = CARTESIAN_POINT ( 'NONE',  ( 2.444036937190193601E-13, 8.998558695971026591E-33, 70.00000000000000000 ) ) ;
#90 = MANIFOLD_SOLID_BREP ( 'Corps-Déplacer/Copier1[1]', #253 ) ;
#91 = DIRECTION ( 'NONE',  ( -3.491481338843133355E-15, 1.224646799147353207E-16, -1.000000000000000000 ) ) ;
#92 = EDGE_LOOP ( 'NONE', ( #255 ) ) ;
#93 = ADVANCED_FACE ( 'NONE', ( #207 ), #294, .F. ) ;
#94 = DIRECTION ( 'NONE',  ( 1.000000000000000000, 0.0000000000000000000, 0.0000000000000000000 ) ) ;
#95 = CLOSED_SHELL ( 'NONE', ( #93, #178, #300, #70 ) ) ;
#96 = CONICAL_SURFACE ( 'NONE', #148, 1.534999999999998588, 0.7853981633974432830 ) ;
#97 = DATE_TIME_ROLE ( 'creation_date' ) ;
#98 = EDGE_CURVE ( 'NONE', #103, #103, #71, .T. ) ;
#99 = APPROVAL_ROLE ( '' ) ;
#100 = APPROVAL_PERSON_ORGANIZATION ( #193, #75, #221 ) ;
#101 = ORIENTED_EDGE ( 'NONE', *, *, #10, .F. ) ;
#102 = VERTEX_POINT ( 'NONE', #150 ) ;
#103 = VERTEX_POINT ( 'NONE', #202 ) ;
#104 = TOROIDAL_SURFACE ( 'NONE', #275, 3.399999999999999911, 2.000000000000000000 ) ;
#105 = EDGE_LOOP ( 'NONE', ( #177 ) ) ;
#106 = DESIGN_CONTEXT ( 'detailed design', #123, 'design' ) ;
#107 = EDGE_LOOP ( 'NONE', ( #32 ) ) ;
#108 = EDGE_LOOP ( 'NONE', ( #250 ) ) ;
#109 = CC_DESIGN_PERSON_AND_ORGANIZATION_ASSIGNMENT ( #219, #74, ( #199 ) ) ;
#110 = EDGE_LOOP ( 'NONE', ( #279 ) ) ;
#111 = ADVANCED_BREP_SHAPE_REPRESENTATION ( '321533', ( #90, #197, #286 ), #1 ) ;
#112 = DIRECTION ( 'NONE',  ( 3.491481338843133355E-15, -1.224646799147353207E-16, 1.000000000000000000 ) ) ;
#113 = CONICAL_SURFACE ( 'NONE', #195, 1.200000000000001510, 0.7853981633974566057 ) ;
#114 = FACE_OUTER_BOUND ( 'NONE', #205, .T. ) ;
#115 = DIRECTION ( 'NONE',  ( -3.491481338843133355E-15, 1.224646799147353207E-16, -1.000000000000000000 ) ) ;
#116 = CC_DESIGN_APPROVAL ( #13, ( #246 ) ) ;
#117 = FACE_OUTER_BOUND ( 'NONE', #92, .T. ) ;
#118 = CARTESIAN_POINT ( 'NONE',  ( 8.987808100725203251E-14, -3.152498711492696494E-15, 25.74210550901360861 ) ) ;
#119 = CIRCLE ( 'NONE', #147, 1.499999999999996003 ) ;
#120 = CIRCLE ( 'NONE', #213, 1.534999999999998588 ) ;
#121 = ADVANCED_FACE ( 'NONE', ( #20 ), #14, .F. ) ;
#122 = PERSON_AND_ORGANIZATION ( #223, #133 ) ;
#123 = APPLICATION_CONTEXT ( 'configuration controlled 3d designs of mechanical parts and assemblies' ) ;
#124 = COORDINATED_UNIVERSAL_TIME_OFFSET ( 1, 0, .AHEAD. ) ;
#125 = PERSON_AND_ORGANIZATION_ROLE ( 'design_supplier' ) ;
#126 = ORIENTED_EDGE ( 'NONE', *, *, #64, .F. ) ;
#127 = VERTEX_POINT ( 'NONE', #291 ) ;
#128 = CARTESIAN_POINT ( 'NONE',  ( 8.728703347107833388E-14, 1.399999999999996803, 25.00000000000000000 ) ) ;
#129 = CIRCLE ( 'NONE', #296, 1.500000000000001110 ) ;
#130 = CARTESIAN_POINT ( 'NONE',  ( 8.849961221477468513E-14, -3.104148534859896361E-15, 25.34729635533384240 ) ) ;
#131 = DIRECTION ( 'NONE',  ( -3.491481338843133355E-15, 1.224646799147353207E-16, -1.000000000000000000 ) ) ;
#132 = EDGE_LOOP ( 'NONE', ( #60 ) ) ;
#133 = ORGANIZATION ( 'UNSPECIFIED', 'UNSPECIFIED', '' ) ;
#134 = DIRECTION ( 'NONE',  ( 4.275831445896958607E-31, 1.000000000000000000, 1.224646799147353207E-16 ) ) ;
#135 = FACE_BOUND ( 'NONE', #282, .T. ) ;
#136 = CC_DESIGN_PERSON_AND_ORGANIZATION_ASSIGNMENT ( #264, #22, ( #81 ) ) ;
#137 = DIRECTION ( 'NONE',  ( 3.491481338843133355E-15, -1.224646799147353207E-16, 1.000000000000000000 ) ) ;
#138 = CARTESIAN_POINT ( 'NONE',  ( 3.573121550322626603E-14, -1.253282330592926295E-15, 10.23382685902180533 ) ) ;
#139 = FACE_BOUND ( 'NONE', #290, .T. ) ;
#140 = CONICAL_SURFACE ( 'NONE', #302, 1.499999999999996003, 0.1745329251994282016 ) ;
#141 = DIRECTION ( 'NONE',  ( 0.0000000000000000000, -1.000000000000000000, 0.0000000000000000000 ) ) ;
#142 = DIRECTION ( 'NONE',  ( 0.0000000000000000000, 1.000000000000000000, 0.0000000000000000000 ) ) ;
#143 = SHAPE_DEFINITION_REPRESENTATION ( #19, #111 ) ;
#144 = AXIS2_PLACEMENT_3D ( 'NONE', #56, #78, #265 ) ;
#145 = CARTESIAN_POINT ( 'NONE',  ( 3.491481338843133355E-14, 1.151065633192973716E-32, 10.00000000000000000 ) ) ;
#146 = APPROVAL ( #72, 'UNSPECIFIED' ) ;
#147 = AXIS2_PLACEMENT_3D ( 'NONE', #267, #184, #33 ) ;
#148 = AXIS2_PLACEMENT_3D ( 'NONE', #88, #209, #299 ) ;
#149 = COORDINATED_UNIVERSAL_TIME_OFFSET ( 1, 0, .AHEAD. ) ;
#150 = CARTESIAN_POINT ( 'NONE',  ( 2.433562493173664138E-13, 1.499999999999992673, 69.70000000000001705 ) ) ;
#151 = CALENDAR_DATE ( 2021, 2, 12 ) ;
#152 = EDGE_LOOP ( 'NONE', ( #36 ) ) ;
#153 =( NAMED_UNIT ( * ) SI_UNIT ( $, .STERADIAN. ) SOLID_ANGLE_UNIT ( ) );
#154 = ADVANCED_FACE ( 'NONE', ( #256, #212 ), #104, .F. ) ;
#155 = ORIENTED_EDGE ( 'NONE', *, *, #52, .T. ) ;
#156 = AXIS2_PLACEMENT_3D ( 'NONE', #89, #68, #230 ) ;
#157 = DIRECTION ( 'NONE',  ( 0.0000000000000000000, 1.000000000000000000, 0.0000000000000000000 ) ) ;
#158 = CARTESIAN_POINT ( 'NONE',  ( 3.491481338843133355E-14, 1.534999999999998588, 10.00000000000000000 ) ) ;
#159 = EDGE_CURVE ( 'NONE', #77, #77, #120, .T. ) ;
#160 = ORIENTED_EDGE ( 'NONE', *, *, #98, .T. ) ;
#161 = LOCAL_TIME ( 8, 17, 58.00000000000000000, #196 ) ;
#162 = FACE_OUTER_BOUND ( 'NONE', #192, .T. ) ;
#163 = AXIS2_PLACEMENT_3D ( 'NONE', #145, #251, #210 ) ;
#164 = PLANE ( 'NONE',  #163 ) ;
#165 = PRODUCT_RELATED_PRODUCT_CATEGORY ( 'detail', '', ( #81 ) ) ;
#166 = CALENDAR_DATE ( 2021, 2, 12 ) ;
#167 = CARTESIAN_POINT ( 'NONE',  ( 5.861971550321370750E-31, -2.056102839768449722E-32, 1.678935380552162862E-16 ) ) ;
#168 = FACE_OUTER_BOUND ( 'NONE', #203, .T. ) ;
#169 = CC_DESIGN_PERSON_AND_ORGANIZATION_ASSIGNMENT ( #238, #218, ( #246 ) ) ;
#170 = DIRECTION ( 'NONE',  ( 0.0000000000000000000, 1.000000000000000000, 0.0000000000000000000 ) ) ;
#171 =( LENGTH_UNIT ( ) NAMED_UNIT ( * ) SI_UNIT ( .MILLI., .METRE. ) );
#172 = APPROVAL_STATUS ( 'not_yet_approved' ) ;
#173 = ORIENTED_EDGE ( 'NONE', *, *, #266, .T. ) ;
#174 = DATE_TIME_ROLE ( 'classification_date' ) ;
#175 = AXIS2_PLACEMENT_3D ( 'NONE', #289, #131, #134 ) ;
#176 = DATE_AND_TIME ( #50, #84 ) ;
#177 = ORIENTED_EDGE ( 'NONE', *, *, #4, .F. ) ;
#178 = ADVANCED_FACE ( 'NONE', ( #139, #114 ), #96, .T. ) ;
#179 = VERTEX_POINT ( 'NONE', #222 ) ;
#180 = ORIENTED_EDGE ( 'NONE', *, *, #10, .T. ) ;
#181 = FACE_OUTER_BOUND ( 'NONE', #152, .T. ) ;
#182 = DIRECTION ( 'NONE',  ( -3.491481338843133355E-15, 1.224646799147353207E-16, -1.000000000000000000 ) ) ;
#183 = FACE_OUTER_BOUND ( 'NONE', #105, .T. ) ;
#184 = DIRECTION ( 'NONE',  ( -3.491481338843133355E-15, 1.224646799147353207E-16, -1.000000000000000000 ) ) ;
#185 = LOCAL_TIME ( 8, 17, 58.00000000000000000, #2 ) ;
#186 = EDGE_LOOP ( 'NONE', ( #79 ) ) ;
#187 = DIRECTION ( 'NONE',  ( 0.0000000000000000000, 1.000000000000000000, 0.0000000000000000000 ) ) ;
#188 = CYLINDRICAL_SURFACE ( 'NONE', #86, 1.399999999999998801 ) ;
#189 = CARTESIAN_POINT ( 'NONE',  ( 8.728703347107833388E-14, -3.061616997868383043E-15, 25.00000000000000000 ) ) ;
#190 = ADVANCED_FACE ( 'NONE', ( #38 ), #164, .F. ) ;
#191 = DIRECTION ( 'NONE',  ( -3.491481338843133355E-15, 1.224646799147353207E-16, -1.000000000000000000 ) ) ;
#192 = EDGE_LOOP ( 'NONE', ( #126 ) ) ;
#193 = PERSON_AND_ORGANIZATION ( #223, #133 ) ;
#194 = APPROVAL_DATE_TIME ( #53, #75 ) ;
#195 = AXIS2_PLACEMENT_3D ( 'NONE', #234, #91, #244 ) ;
#196 = COORDINATED_UNIVERSAL_TIME_OFFSET ( 1, 0, .AHEAD. ) ;
#197 = MANIFOLD_SOLID_BREP ( 'Corps-Déplacer/Copier1[2]', #95 ) ;
#198 = APPROVAL_DATE_TIME ( #176, #13 ) ;
#199 = SECURITY_CLASSIFICATION ( '', '', #301 ) ;
#200 = ORIENTED_EDGE ( 'NONE', *, *, #266, .F. ) ;
#201 = CC_DESIGN_DATE_AND_TIME_ASSIGNMENT ( #303, #174, ( #199 ) ) ;
#202 = CARTESIAN_POINT ( 'NONE',  ( 2.444036937190193601E-13, 1.199999999999992628, 70.00000000000000000 ) ) ;
#203 = EDGE_LOOP ( 'NONE', ( #101 ) ) ;
#204 = CARTESIAN_POINT ( 'NONE',  ( 8.849961221477468513E-14, 1.430384493975577209, 25.34729635533384240 ) ) ;
#205 = EDGE_LOOP ( 'NONE', ( #26 ) ) ;
#206 = CYLINDRICAL_SURFACE ( 'NONE', #144, 1.499999999999998446 ) ;
#207 = FACE_OUTER_BOUND ( 'NONE', #245, .T. ) ;
#208 = DIRECTION ( 'NONE',  ( -4.275831445896958607E-31, -1.000000000000000000, -1.224646799147353207E-16 ) ) ;
#209 = DIRECTION ( 'NONE',  ( 3.491481338843133355E-15, -1.224646799147353207E-16, 1.000000000000000000 ) ) ;
#210 = DIRECTION ( 'NONE',  ( -4.275831445896958607E-31, -1.000000000000000000, -1.224646799147353207E-16 ) ) ;
#211 = CC_DESIGN_APPROVAL ( #75, ( #37 ) ) ;
#212 = FACE_OUTER_BOUND ( 'NONE', #9, .T. ) ;
#213 = AXIS2_PLACEMENT_3D ( 'NONE', #67, #115, #65 ) ;
#214 = PERSON_AND_ORGANIZATION_ROLE ( 'creator' ) ;
#215 = APPROVAL_STATUS ( 'not_yet_approved' ) ;
#216 = CC_DESIGN_PERSON_AND_ORGANIZATION_ASSIGNMENT ( #25, #125, ( #246 ) ) ;
#217 = EDGE_LOOP ( 'NONE', ( #270 ) ) ;
#218 = PERSON_AND_ORGANIZATION_ROLE ( 'creator' ) ;
#219 = PERSON_AND_ORGANIZATION ( #223, #133 ) ;
#220 = CC_DESIGN_DATE_AND_TIME_ASSIGNMENT ( #283, #97, ( #37 ) ) ;
#221 = APPROVAL_ROLE ( '' ) ;
#222 = CARTESIAN_POINT ( 'NONE',  ( 3.573121550322626603E-14, 1.399999999999997025, 10.23382685902180533 ) ) ;
#223 = PERSON ( 'UNSPECIFIED', 'UNSPECIFIED', 'UNSPECIFIED', ('UNSPECIFIED'), ('UNSPECIFIED'), ('UNSPECIFIED') ) ;
#224 = AXIS2_PLACEMENT_3D ( 'NONE', #138, #247, #157 ) ;
#225 = CIRCLE ( 'NONE', #21, 1.534999999999999920 ) ;
#226 = VERTEX_POINT ( 'NONE', #158 ) ;
#227 = DIRECTION ( 'NONE',  ( -3.491481338843133355E-15, 1.224646799147353207E-16, -1.000000000000000000 ) ) ;
#228 = CARTESIAN_POINT ( 'NONE',  ( 3.573121550322626603E-14, -1.253282330592926295E-15, 10.23382685902180533 ) ) ;
#229 = DIRECTION ( 'NONE',  ( -3.491481338843133355E-15, 1.224646799147353207E-16, -1.000000000000000000 ) ) ;
#230 = DIRECTION ( 'NONE',  ( 4.275831445896958607E-31, 1.000000000000000000, 1.224646799147353207E-16 ) ) ;
#231 = APPROVAL_DATE_TIME ( #46, #146 ) ;
#232 = AXIS2_PLACEMENT_3D ( 'NONE', #35, #137, #12 ) ;
#233 = CARTESIAN_POINT ( 'NONE',  ( 2.433562493173664138E-13, -8.535788190057053710E-15, 69.70000000000001705 ) ) ;
#234 = CARTESIAN_POINT ( 'NONE',  ( 2.444036937190193601E-13, -8.572527594031472993E-15, 70.00000000000000000 ) ) ;
#235 = CC_DESIGN_SECURITY_CLASSIFICATION ( #199, ( #246 ) ) ;
#236 = CIRCLE ( 'NONE', #15, 1.430384493975580318 ) ;
#237 = CALENDAR_DATE ( 2021, 2, 12 ) ;
#238 = PERSON_AND_ORGANIZATION ( #223, #133 ) ;
#239 = PERSON_AND_ORGANIZATION ( #223, #133 ) ;
#240 = ADVANCED_FACE ( 'NONE', ( #278, #297 ), #140, .T. ) ;
#241 = CYLINDRICAL_SURFACE ( 'NONE', #175, 1.534999999999999254 ) ;
#242 = FACE_OUTER_BOUND ( 'NONE', #83, .T. ) ;
#243 = DIRECTION ( 'NONE',  ( -3.491481338843133355E-15, 1.224646799147353207E-16, -1.000000000000000000 ) ) ;
#244 = DIRECTION ( 'NONE',  ( 0.0000000000000000000, 1.000000000000000000, 0.0000000000000000000 ) ) ;
#245 = EDGE_LOOP ( 'NONE', ( #173 ) ) ;
#246 = PRODUCT_DEFINITION_FORMATION_WITH_SPECIFIED_SOURCE ( 'ANY', '', #81, .NOT_KNOWN. ) ;
#247 = DIRECTION ( 'NONE',  ( -3.491481338843133355E-15, 1.224646799147353207E-16, -1.000000000000000000 ) ) ;
#248 = PLANE ( 'NONE',  #232 ) ;
#249 = AXIS2_PLACEMENT_3D ( 'NONE', #292, #182, #274 ) ;
#250 = ORIENTED_EDGE ( 'NONE', *, *, #40, .F. ) ;
#251 = DIRECTION ( 'NONE',  ( 3.491481338843133355E-15, -1.224646799147353207E-16, 1.000000000000000000 ) ) ;
#252 = DIRECTION ( 'NONE',  ( 4.275831445896958607E-31, 1.000000000000000000, 1.224646799147352961E-16 ) ) ;
#253 = CLOSED_SHELL ( 'NONE', ( #190, #27, #258, #154, #240, #293, #281, #121 ) ) ;
#254 = FACE_OUTER_BOUND ( 'NONE', #110, .T. ) ;
#255 = ORIENTED_EDGE ( 'NONE', *, *, #271, .F. ) ;
#256 = FACE_OUTER_BOUND ( 'NONE', #3, .T. ) ;
#257 = LOCAL_TIME ( 8, 17, 58.00000000000000000, #42 ) ;
#258 = ADVANCED_FACE ( 'NONE', ( #168, #254 ), #188, .T. ) ;
#259 = AXIS2_PLACEMENT_3D ( 'NONE', #167, #41, #252 ) ;
#260 = APPROVAL_ROLE ( '' ) ;
#261 = EDGE_CURVE ( 'NONE', #28, #28, #47, .T. ) ;
#262 =( NAMED_UNIT ( * ) PLANE_ANGLE_UNIT ( ) SI_UNIT ( $, .RADIAN. ) );
#263 = EDGE_LOOP ( 'NONE', ( #11 ) ) ;
#264 = PERSON_AND_ORGANIZATION ( #223, #133 ) ;
#265 = DIRECTION ( 'NONE',  ( 4.275831445896958607E-31, 1.000000000000000000, 1.224646799147353207E-16 ) ) ;
#266 = EDGE_CURVE ( 'NONE', #6, #6, #268, .T. ) ;
#267 = CARTESIAN_POINT ( 'NONE',  ( 8.987808100725203251E-14, -3.152498711492696494E-15, 25.74210550901360861 ) ) ;
#268 = CIRCLE ( 'NONE', #259, 1.285000000000001474 ) ;
#269 = CARTESIAN_POINT ( 'NONE',  ( 8.987808100725203251E-14, 1.499999999999992673, 25.74210550901360861 ) ) ;
#270 = ORIENTED_EDGE ( 'NONE', *, *, #40, .T. ) ;
#271 = EDGE_CURVE ( 'NONE', #102, #102, #129, .T. ) ;
#272 = LOCAL_TIME ( 8, 17, 58.00000000000000000, #149 ) ;
#273 = DIRECTION ( 'NONE',  ( 0.0000000000000000000, 1.000000000000000000, 0.0000000000000000000 ) ) ;
#274 = DIRECTION ( 'NONE',  ( 0.0000000000000000000, 1.000000000000000000, 0.0000000000000000000 ) ) ;
#275 = AXIS2_PLACEMENT_3D ( 'NONE', #44, #17, #276 ) ;
#276 = DIRECTION ( 'NONE',  ( 4.275831445896958607E-31, 1.000000000000000000, 1.224646799147353207E-16 ) ) ;
#277 = DIRECTION ( 'NONE',  ( 4.275831445896958607E-31, 1.000000000000000000, 1.224646799147353207E-16 ) ) ;
#278 = FACE_BOUND ( 'NONE', #132, .T. ) ;
#279 = ORIENTED_EDGE ( 'NONE', *, *, #261, .T. ) ;
#280 = FACE_BOUND ( 'NONE', #58, .T. ) ;
#281 = ADVANCED_FACE ( 'NONE', ( #117, #280 ), #113, .T. ) ;
#282 = EDGE_LOOP ( 'NONE', ( #180 ) ) ;
#283 = DATE_AND_TIME ( #237, #272 ) ;
#284 = CIRCLE ( 'NONE', #249, 1.534999999999999920 ) ;
#285 = PERSON_AND_ORGANIZATION ( #223, #133 ) ;
#286 = AXIS2_PLACEMENT_3D ( 'NONE', #69, #48, #94 ) ;
#287 = APPLICATION_CONTEXT ( 'configuration controlled 3d designs of mechanical parts and assemblies' ) ;
#288 = AXIS2_PLACEMENT_3D ( 'NONE', #85, #112, #208 ) ;
#289 = CARTESIAN_POINT ( 'NONE',  ( 0.0000000000000000000, 0.0000000000000000000, 0.0000000000000000000 ) ) ;
#290 = EDGE_LOOP ( 'NONE', ( #200 ) ) ;
#291 = CARTESIAN_POINT ( 'NONE',  ( 3.491481338843133355E-14, 1.534999999999998588, 10.00000000000000000 ) ) ;
#292 = CARTESIAN_POINT ( 'NONE',  ( 3.491481338843133355E-14, -1.224646799147353256E-15, 10.00000000000000000 ) ) ;
#293 = ADVANCED_FACE ( 'NONE', ( #183, #181 ), #206, .T. ) ;
#294 = PLANE ( 'NONE',  #288 ) ;
#295 = CARTESIAN_POINT ( 'NONE',  ( 2.444036937190193601E-13, -8.572527594031472993E-15, 70.00000000000000000 ) ) ;
#296 = AXIS2_PLACEMENT_3D ( 'NONE', #233, #16, #142 ) ;
#297 = FACE_OUTER_BOUND ( 'NONE', #186, .T. ) ;
#298 = DIRECTION ( 'NONE',  ( 3.491481338843133355E-15, -1.224646799147353207E-16, 1.000000000000000000 ) ) ;
#299 = DIRECTION ( 'NONE',  ( -3.764032464600464538E-31, -1.000000000000000000, -1.059480950311568861E-16 ) ) ;
#300 = ADVANCED_FACE ( 'NONE', ( #242, #31 ), #241, .T. ) ;
#301 = SECURITY_CLASSIFICATION_LEVEL ( 'unclassified' ) ;
#302 = AXIS2_PLACEMENT_3D ( 'NONE', #118, #298, #141 ) ;
#303 = DATE_AND_TIME ( #151, #161 ) ;
ENDSEC;
END-ISO-10303-21;
