ISO-10303-21;
HEADER;
FILE_DESCRIPTION (( 'STEP AP203' ),
    '1' );
FILE_NAME ('321532.step',
    '2021-12-02T07:17:58',
    ( '' ),
    ( '' ),
    'SwSTEP 2.0',
    'SolidWorks 2019',
    '' );
FILE_SCHEMA (( 'CONFIG_CONTROL_DESIGN' ));
ENDSEC;

DATA;
#1 = PERSON_AND_ORGANIZATION ( #300, #91 ) ;
#2 = AXIS2_PLACEMENT_3D ( 'NONE', #175, #88, #17 ) ;
#3 = COORDINATED_UNIVERSAL_TIME_OFFSET ( 1, 0, .AHEAD. ) ;
#4 = CARTESIAN_POINT ( 'NONE',  ( 3.570097838786349099E-14, -1.252221755354201448E-15, 10.22516660498395957 ) ) ;
#5 = CC_DESIGN_APPROVAL ( #250, ( #297 ) ) ;
#6 = COORDINATED_UNIVERSAL_TIME_OFFSET ( 1, 0, .AHEAD. ) ;
#7 = EDGE_LOOP ( 'NONE', ( #11 ) ) ;
#8 = CARTESIAN_POINT ( 'NONE',  ( 0.0000000000000000000, 0.0000000000000000000, 0.0000000000000000000 ) ) ;
#9 = EDGE_LOOP ( 'NONE', ( #150 ) ) ;
#10 = CC_DESIGN_DATE_AND_TIME_ASSIGNMENT ( #26, #230, ( #102 ) ) ;
#11 = ORIENTED_EDGE ( 'NONE', *, *, #137, .T. ) ;
#12 = ADVANCED_FACE ( 'NONE', ( #107, #123 ), #146, .T. ) ;
#13 = FACE_BOUND ( 'NONE', #213, .T. ) ;
#14 = PLANE ( 'NONE',  #195 ) ;
#15 = CARTESIAN_POINT ( 'NONE',  ( 3.570097838786349099E-14, -1.252221755354201448E-15, 10.22516660498395957 ) ) ;
#16 = CIRCLE ( 'NONE', #2, 1.399999999999999689 ) ;
#17 = DIRECTION ( 'NONE',  ( 0.0000000000000000000, 1.000000000000000000, 0.0000000000000000000 ) ) ;
#18 = CARTESIAN_POINT ( 'NONE',  ( 2.433562493173664138E-13, -8.535788190057053710E-15, 69.70000000000001705 ) ) ;
#19 = VERTEX_POINT ( 'NONE', #160 ) ;
#20 = CC_DESIGN_PERSON_AND_ORGANIZATION_ASSIGNMENT ( #54, #103, ( #44 ) ) ;
#21 = UNCERTAINTY_MEASURE_WITH_UNIT (LENGTH_MEASURE( 1.000000000000000082E-05 ), #187, 'distance_accuracy_value', 'NONE');
#22 = AXIS2_PLACEMENT_3D ( 'NONE', #201, #61, #217 ) ;
#23 = CARTESIAN_POINT ( 'NONE',  ( 8.728703347107833388E-14, 1.399999999999996803, 25.00000000000000000 ) ) ;
#24 = CARTESIAN_POINT ( 'NONE',  ( 8.728703347107833388E-16, 1.529999999999998916, 0.2500000000000000000 ) ) ;
#25 = DIRECTION ( 'NONE',  ( 0.0000000000000000000, 1.000000000000000000, 0.0000000000000000000 ) ) ;
#26 = DATE_AND_TIME ( #209, #128 ) ;
#27 = DATE_AND_TIME ( #232, #212 ) ;
#28 = COORDINATED_UNIVERSAL_TIME_OFFSET ( 1, 0, .AHEAD. ) ;
#29 = EDGE_LOOP ( 'NONE', ( #191 ) ) ;
#30 = AXIS2_PLACEMENT_3D ( 'NONE', #8, #171, #58 ) ;
#31 = DATE_AND_TIME ( #75, #138 ) ;
#32 = CC_DESIGN_SECURITY_CLASSIFICATION ( #44, ( #297 ) ) ;
#33 = DIRECTION ( 'NONE',  ( -3.491481338843133355E-15, 1.224646799147353207E-16, -1.000000000000000000 ) ) ;
#34 = ADVANCED_FACE ( 'NONE', ( #36, #210 ), #199, .T. ) ;
#35 = EDGE_LOOP ( 'NONE', ( #286 ) ) ;
#36 = FACE_OUTER_BOUND ( 'NONE', #29, .T. ) ;
#37 = AXIS2_PLACEMENT_3D ( 'NONE', #196, #237, #174 ) ;
#38 = FACE_BOUND ( 'NONE', #173, .T. ) ;
#39 = DIRECTION ( 'NONE',  ( 0.0000000000000000000, -1.000000000000000000, 0.0000000000000000000 ) ) ;
#40 = AXIS2_PLACEMENT_3D ( 'NONE', #155, #241, #41 ) ;
#41 = DIRECTION ( 'NONE',  ( 0.0000000000000000000, 1.000000000000000000, 0.0000000000000000000 ) ) ;
#42 = CARTESIAN_POINT ( 'NONE',  ( 2.444036937190193601E-13, 1.199999999999992628, 70.00000000000000000 ) ) ;
#43 = CARTESIAN_POINT ( 'NONE',  ( 0.0000000000000000000, 0.0000000000000000000, 0.0000000000000000000 ) ) ;
#44 = SECURITY_CLASSIFICATION ( '', '', #168 ) ;
#45 = CC_DESIGN_APPROVAL ( #117, ( #44 ) ) ;
#46 = APPROVAL_STATUS ( 'not_yet_approved' ) ;
#47 = ADVANCED_FACE ( 'NONE', ( #256, #55 ), #145, .T. ) ;
#48 = CARTESIAN_POINT ( 'NONE',  ( 3.491481338843133355E-14, 1.529999999999998916, 10.00000000000000000 ) ) ;
#49 = DIRECTION ( 'NONE',  ( 4.275831445896958607E-31, 1.000000000000000000, 1.224646799147353207E-16 ) ) ;
#50 = APPROVAL_STATUS ( 'not_yet_approved' ) ;
#51 = AXIS2_PLACEMENT_3D ( 'NONE', #294, #293, #63 ) ;
#52 = APPROVAL_ROLE ( '' ) ;
#53 = ADVANCED_FACE ( 'NONE', ( #169, #258 ), #233, .T. ) ;
#54 = PERSON_AND_ORGANIZATION ( #300, #91 ) ;
#55 = FACE_OUTER_BOUND ( 'NONE', #35, .T. ) ;
#56 = PERSON_AND_ORGANIZATION ( #300, #91 ) ;
#57 = AXIS2_PLACEMENT_3D ( 'NONE', #244, #268, #197 ) ;
#58 = DIRECTION ( 'NONE',  ( 4.275831445896958607E-31, 1.000000000000000000, 1.224646799147353207E-16 ) ) ;
#59 = ORIENTED_EDGE ( 'NONE', *, *, #137, .F. ) ;
#60 = EDGE_LOOP ( 'NONE', ( #216 ) ) ;
#61 = DIRECTION ( 'NONE',  ( -3.491481338843133355E-15, 1.224646799147353207E-16, -1.000000000000000000 ) ) ;
#62 = LOCAL_TIME ( 8, 17, 58.00000000000000000, #161 ) ;
#63 = DIRECTION ( 'NONE',  ( -4.275831445896958607E-31, -1.000000000000000000, -1.224646799147353207E-16 ) ) ;
#64 = PRODUCT_DEFINITION_SHAPE ( 'NONE', 'NONE',  #102 ) ;
#65 = DIRECTION ( 'NONE',  ( -3.491481338843133355E-15, 1.224646799147353207E-16, -1.000000000000000000 ) ) ;
#66 = APPROVAL ( #46, 'UNSPECIFIED' ) ;
#67 = AXIS2_PLACEMENT_3D ( 'NONE', #278, #249, #49 ) ;
#68 = DIRECTION ( 'NONE',  ( 0.0000000000000000000, 1.000000000000000000, 0.0000000000000000000 ) ) ;
#69 = MECHANICAL_CONTEXT ( 'NONE', #163, 'mechanical' ) ;
#70 = AXIS2_PLACEMENT_3D ( 'NONE', #131, #218, #68 ) ;
#71 = DIRECTION ( 'NONE',  ( 0.0000000000000000000, 1.000000000000000000, 0.0000000000000000000 ) ) ;
#72 = DATE_AND_TIME ( #273, #62 ) ;
#73 = DIRECTION ( 'NONE',  ( -3.491481338843133355E-15, 1.224646799147353207E-16, -1.000000000000000000 ) ) ;
#74 = CC_DESIGN_PERSON_AND_ORGANIZATION_ASSIGNMENT ( #280, #255, ( #297 ) ) ;
#75 = CALENDAR_DATE ( 2021, 2, 12 ) ;
#76 = DIRECTION ( 'NONE',  ( -3.491481338843133355E-15, 1.224646799147353207E-16, -1.000000000000000000 ) ) ;
#77 = CARTESIAN_POINT ( 'NONE',  ( 0.0000000000000000000, 0.0000000000000000000, 0.0000000000000000000 ) ) ;
#78 = APPLICATION_CONTEXT ( 'configuration controlled 3d designs of mechanical parts and assemblies' ) ;
#79 = ADVANCED_FACE ( 'NONE', ( #200, #152 ), #238, .F. ) ;
#80 = EDGE_LOOP ( 'NONE', ( #194 ) ) ;
#81 = AXIS2_PLACEMENT_3D ( 'NONE', #186, #114, #25 ) ;
#82 = EDGE_LOOP ( 'NONE', ( #289 ) ) ;
#83 = ORIENTED_EDGE ( 'NONE', *, *, #303, .T. ) ;
#84 = CARTESIAN_POINT ( 'NONE',  ( 2.444036937190193601E-13, 8.998558695971026591E-33, 70.00000000000000000 ) ) ;
#85 = DIRECTION ( 'NONE',  ( 4.275831445896958607E-31, 1.000000000000000000, 1.224646799147353207E-16 ) ) ;
#86 = APPROVAL_PERSON_ORGANIZATION ( #1, #66, #139 ) ;
#87 = LOCAL_TIME ( 8, 17, 58.00000000000000000, #28 ) ;
#88 = DIRECTION ( 'NONE',  ( -3.491481338843133355E-15, 1.224646799147353207E-16, -1.000000000000000000 ) ) ;
#89 = FACE_OUTER_BOUND ( 'NONE', #82, .T. ) ;
#90 = FACE_OUTER_BOUND ( 'NONE', #104, .T. ) ;
#91 = ORGANIZATION ( 'UNSPECIFIED', 'UNSPECIFIED', '' ) ;
#92 = CARTESIAN_POINT ( 'NONE',  ( 2.433562493173664138E-13, 1.499999999999992673, 69.70000000000001705 ) ) ;
#93 = CIRCLE ( 'NONE', #288, 1.529999999999998916 ) ;
#94 = VERTEX_POINT ( 'NONE', #118 ) ;
#95 = VERTEX_POINT ( 'NONE', #224 ) ;
#96 = CC_DESIGN_PERSON_AND_ORGANIZATION_ASSIGNMENT ( #120, #188, ( #102 ) ) ;
#97 = APPROVAL_ROLE ( '' ) ;
#98 = ORIENTED_EDGE ( 'NONE', *, *, #303, .F. ) ;
#99 =( GEOMETRIC_REPRESENTATION_CONTEXT ( 3 ) GLOBAL_UNCERTAINTY_ASSIGNED_CONTEXT ( ( #21 ) ) GLOBAL_UNIT_ASSIGNED_CONTEXT ( ( #187, #207, #227 ) ) REPRESENTATION_CONTEXT ( 'NONE', 'WORKASPACE' ) );
#100 = AXIS2_PLACEMENT_3D ( 'NONE', #84, #111, #85 ) ;
#101 = DIRECTION ( 'NONE',  ( 4.275831445896958607E-31, 1.000000000000000000, 1.224646799147353207E-16 ) ) ;
#102 = PRODUCT_DEFINITION ( 'UNKNOWN', '', #297, #245 ) ;
#103 = PERSON_AND_ORGANIZATION_ROLE ( 'classification_officer' ) ;
#104 = EDGE_LOOP ( 'NONE', ( #302 ) ) ;
#105 = EDGE_LOOP ( 'NONE', ( #284 ) ) ;
#106 = CIRCLE ( 'NONE', #81, 1.200000000000001510 ) ;
#107 = FACE_OUTER_BOUND ( 'NONE', #116, .T. ) ;
#108 = FACE_BOUND ( 'NONE', #80, .T. ) ;
#109 = CC_DESIGN_DATE_AND_TIME_ASSIGNMENT ( #27, #231, ( #44 ) ) ;
#110 = PRODUCT ( '321532', '321532', '', ( #69 ) ) ;
#111 = DIRECTION ( 'NONE',  ( -3.491481338843133355E-15, 1.224646799147353207E-16, -1.000000000000000000 ) ) ;
#112 = DIRECTION ( 'NONE',  ( -3.491481338843133355E-15, 1.224646799147353207E-16, -1.000000000000000000 ) ) ;
#113 = PLANE ( 'NONE',  #266 ) ;
#114 = DIRECTION ( 'NONE',  ( -3.491481338843133355E-15, 1.224646799147353207E-16, -1.000000000000000000 ) ) ;
#115 = CONICAL_SURFACE ( 'NONE', #260, 1.499999999999996003, 0.1745329251994282016 ) ;
#116 = EDGE_LOOP ( 'NONE', ( #215 ) ) ;
#117 = APPROVAL ( #235, 'UNSPECIFIED' ) ;
#118 = CARTESIAN_POINT ( 'NONE',  ( 8.987808100725203251E-14, 1.499999999999992673, 25.74210550901360861 ) ) ;
#119 = ADVANCED_FACE ( 'NONE', ( #180, #13 ), #176, .T. ) ;
#120 = PERSON_AND_ORGANIZATION ( #300, #91 ) ;
#121 = DATE_AND_TIME ( #190, #87 ) ;
#122 = SHAPE_DEFINITION_REPRESENTATION ( #64, #140 ) ;
#123 = FACE_OUTER_BOUND ( 'NONE', #189, .T. ) ;
#124 = CIRCLE ( 'NONE', #166, 1.399999999999998357 ) ;
#125 = ORIENTED_EDGE ( 'NONE', *, *, #277, .T. ) ;
#126 = ORIENTED_EDGE ( 'NONE', *, *, #132, .T. ) ;
#127 = EDGE_CURVE ( 'NONE', #164, #164, #124, .T. ) ;
#128 = LOCAL_TIME ( 8, 17, 58.00000000000000000, #3 ) ;
#129 = DIRECTION ( 'NONE',  ( 3.491481338843133355E-15, -1.224646799147353207E-16, 1.000000000000000000 ) ) ;
#130 = PLANE ( 'NONE',  #100 ) ;
#131 = CARTESIAN_POINT ( 'NONE',  ( 8.849961221477468513E-14, -3.104148534859896361E-15, 25.34729635533384240 ) ) ;
#132 = EDGE_CURVE ( 'NONE', #247, #247, #16, .T. ) ;
#133 = DIRECTION ( 'NONE',  ( 3.491481338843133355E-15, -1.224646799147353207E-16, 1.000000000000000000 ) ) ;
#134 = AXIS2_PLACEMENT_3D ( 'NONE', #77, #33, #101 ) ;
#135 = PLANE ( 'NONE',  #51 ) ;
#136 = PERSON_AND_ORGANIZATION_ROLE ( 'design_owner' ) ;
#137 = EDGE_CURVE ( 'NONE', #225, #225, #229, .T. ) ;
#138 = LOCAL_TIME ( 8, 17, 58.00000000000000000, #279 ) ;
#139 = APPROVAL_ROLE ( '' ) ;
#140 = ADVANCED_BREP_SHAPE_REPRESENTATION ( '321532', ( #254, #165, #265 ), #99 ) ;
#141 = ADVANCED_FACE ( 'NONE', ( #178 ), #135, .F. ) ;
#142 = VERTEX_POINT ( 'NONE', #92 ) ;
#143 = CONICAL_SURFACE ( 'NONE', #226, 1.529999999999998916, 0.7853981633974432830 ) ;
#144 = APPROVAL_DATE_TIME ( #72, #66 ) ;
#145 = CYLINDRICAL_SURFACE ( 'NONE', #134, 1.529999999999999361 ) ;
#146 = CYLINDRICAL_SURFACE ( 'NONE', #37, 1.499999999999998446 ) ;
#147 = ORIENTED_EDGE ( 'NONE', *, *, #221, .T. ) ;
#148 = EDGE_LOOP ( 'NONE', ( #126 ) ) ;
#149 = CC_DESIGN_PERSON_AND_ORGANIZATION_ASSIGNMENT ( #56, #257, ( #297 ) ) ;
#150 = ORIENTED_EDGE ( 'NONE', *, *, #183, .T. ) ;
#151 = CIRCLE ( 'NONE', #40, 1.530000000000000027 ) ;
#152 = FACE_OUTER_BOUND ( 'NONE', #7, .T. ) ;
#153 = CARTESIAN_POINT ( 'NONE',  ( 3.491481338843133355E-14, 1.147316233736319182E-32, 10.00000000000000000 ) ) ;
#154 = ADVANCED_FACE ( 'NONE', ( #295 ), #14, .F. ) ;
#155 = CARTESIAN_POINT ( 'NONE',  ( 3.491481338843133355E-14, -1.224646799147353256E-15, 10.00000000000000000 ) ) ;
#156 = DIRECTION ( 'NONE',  ( 0.0000000000000000000, 1.000000000000000000, 0.0000000000000000000 ) ) ;
#157 = AXIS2_PLACEMENT_3D ( 'NONE', #18, #269, #156 ) ;
#158 = CARTESIAN_POINT ( 'NONE',  ( 3.491481338843133355E-14, 1.147316233736319182E-32, 10.00000000000000000 ) ) ;
#159 = DIRECTION ( 'NONE',  ( 1.000000000000000000, 0.0000000000000000000, 0.0000000000000000000 ) ) ;
#160 = CARTESIAN_POINT ( 'NONE',  ( 3.491481338843133355E-14, 1.529999999999998916, 10.00000000000000000 ) ) ;
#161 = COORDINATED_UNIVERSAL_TIME_OFFSET ( 1, 0, .AHEAD. ) ;
#162 = ADVANCED_FACE ( 'NONE', ( #108, #198 ), #143, .T. ) ;
#163 = APPLICATION_CONTEXT ( 'configuration controlled 3d designs of mechanical parts and assemblies' ) ;
#164 = VERTEX_POINT ( 'NONE', #275 ) ;
#165 = MANIFOLD_SOLID_BREP ( 'Corps-Déplacer/Copier1[2]', #292 ) ;
#166 = AXIS2_PLACEMENT_3D ( 'NONE', #15, #220, #202 ) ;
#167 = DIRECTION ( 'NONE',  ( 0.0000000000000000000, 1.000000000000000000, 0.0000000000000000000 ) ) ;
#168 = SECURITY_CLASSIFICATION_LEVEL ( 'unclassified' ) ;
#169 = FACE_OUTER_BOUND ( 'NONE', #287, .T. ) ;
#170 = PRODUCT_RELATED_PRODUCT_CATEGORY ( 'detail', '', ( #110 ) ) ;
#171 = DIRECTION ( 'NONE',  ( -3.491481338843133355E-15, 1.224646799147353207E-16, -1.000000000000000000 ) ) ;
#172 = CIRCLE ( 'NONE', #157, 1.500000000000001110 ) ;
#173 = EDGE_LOOP ( 'NONE', ( #59 ) ) ;
#174 = DIRECTION ( 'NONE',  ( 4.275831445896958607E-31, 1.000000000000000000, 1.224646799147353207E-16 ) ) ;
#175 = CARTESIAN_POINT ( 'NONE',  ( 8.728703347107833388E-14, -3.061616997868383043E-15, 25.00000000000000000 ) ) ;
#176 = CONICAL_SURFACE ( 'NONE', #22, 1.200000000000001510, 0.7853981633974566057 ) ;
#177 = CARTESIAN_POINT ( 'NONE',  ( 8.728703347107833388E-14, -3.035766082959412415E-15, 25.00000000000000000 ) ) ;
#178 = FACE_OUTER_BOUND ( 'NONE', #261, .T. ) ;
#179 = CARTESIAN_POINT ( 'NONE',  ( 8.728703347107827472E-16, -3.061616997868381169E-17, 0.2499999999999998335 ) ) ;
#180 = FACE_OUTER_BOUND ( 'NONE', #60, .T. ) ;
#181 = DIRECTION ( 'NONE',  ( 0.0000000000000000000, 0.0000000000000000000, 1.000000000000000000 ) ) ;
#182 = PERSON_AND_ORGANIZATION ( #300, #91 ) ;
#183 = EDGE_CURVE ( 'NONE', #19, #19, #185, .T. ) ;
#184 = APPLICATION_PROTOCOL_DEFINITION ( 'international standard', 'config_control_design', 1994, #78 ) ;
#185 = CIRCLE ( 'NONE', #57, 1.530000000000000027 ) ;
#186 = CARTESIAN_POINT ( 'NONE',  ( 2.444036937190193601E-13, -8.572527594031472993E-15, 70.00000000000000000 ) ) ;
#187 =( LENGTH_UNIT ( ) NAMED_UNIT ( * ) SI_UNIT ( .MILLI., .METRE. ) );
#188 = PERSON_AND_ORGANIZATION_ROLE ( 'creator' ) ;
#189 = EDGE_LOOP ( 'NONE', ( #147 ) ) ;
#190 = CALENDAR_DATE ( 2021, 2, 12 ) ;
#191 = ORIENTED_EDGE ( 'NONE', *, *, #183, .F. ) ;
#192 = ORIENTED_EDGE ( 'NONE', *, *, #127, .F. ) ;
#193 = PERSON_AND_ORGANIZATION ( #300, #91 ) ;
#194 = ORIENTED_EDGE ( 'NONE', *, *, #277, .F. ) ;
#195 = AXIS2_PLACEMENT_3D ( 'NONE', #153, #219, #240 ) ;
#196 = CARTESIAN_POINT ( 'NONE',  ( 0.0000000000000000000, 0.0000000000000000000, 0.0000000000000000000 ) ) ;
#197 = DIRECTION ( 'NONE',  ( 0.0000000000000000000, 1.000000000000000000, 0.0000000000000000000 ) ) ;
#198 = FACE_OUTER_BOUND ( 'NONE', #234, .T. ) ;
#199 = CONICAL_SURFACE ( 'NONE', #242, 1.399999999999998357, 0.5235987755982948189 ) ;
#200 = FACE_OUTER_BOUND ( 'NONE', #281, .T. ) ;
#201 = CARTESIAN_POINT ( 'NONE',  ( 2.444036937190193601E-13, -8.572527594031472993E-15, 70.00000000000000000 ) ) ;
#202 = DIRECTION ( 'NONE',  ( 0.0000000000000000000, 1.000000000000000000, 0.0000000000000000000 ) ) ;
#203 = ADVANCED_FACE ( 'NONE', ( #38, #89 ), #115, .T. ) ;
#204 = APPROVAL_PERSON_ORGANIZATION ( #251, #250, #97 ) ;
#205 = VERTEX_POINT ( 'NONE', #48 ) ;
#206 = ADVANCED_FACE ( 'NONE', ( #243 ), #130, .F. ) ;
#207 =( NAMED_UNIT ( * ) PLANE_ANGLE_UNIT ( ) SI_UNIT ( $, .RADIAN. ) );
#208 = CIRCLE ( 'NONE', #67, 1.280000000000001581 ) ;
#209 = CALENDAR_DATE ( 2021, 2, 12 ) ;
#210 = FACE_BOUND ( 'NONE', #262, .T. ) ;
#211 = EDGE_LOOP ( 'NONE', ( #98 ) ) ;
#212 = LOCAL_TIME ( 8, 17, 58.00000000000000000, #6 ) ;
#213 = EDGE_LOOP ( 'NONE', ( #83 ) ) ;
#214 = EDGE_CURVE ( 'NONE', #228, #228, #93, .T. ) ;
#215 = ORIENTED_EDGE ( 'NONE', *, *, #299, .F. ) ;
#216 = ORIENTED_EDGE ( 'NONE', *, *, #221, .F. ) ;
#217 = DIRECTION ( 'NONE',  ( 0.0000000000000000000, 1.000000000000000000, 0.0000000000000000000 ) ) ;
#218 = DIRECTION ( 'NONE',  ( -3.491481338843133355E-15, 1.224646799147353207E-16, -1.000000000000000000 ) ) ;
#219 = DIRECTION ( 'NONE',  ( 3.491481338843133355E-15, -1.224646799147353207E-16, 1.000000000000000000 ) ) ;
#220 = DIRECTION ( 'NONE',  ( -3.491481338843133355E-15, 1.224646799147353207E-16, -1.000000000000000000 ) ) ;
#221 = EDGE_CURVE ( 'NONE', #142, #142, #172, .T. ) ;
#222 = CC_DESIGN_PERSON_AND_ORGANIZATION_ASSIGNMENT ( #182, #136, ( #110 ) ) ;
#223 = CARTESIAN_POINT ( 'NONE',  ( 8.987808100725203251E-14, -3.152498711492696494E-15, 25.74210550901360861 ) ) ;
#224 = CARTESIAN_POINT ( 'NONE',  ( 1.135641495829896858E-30, 1.280000000000001581, 3.252606517456513302E-16 ) ) ;
#225 = VERTEX_POINT ( 'NONE', #298 ) ;
#226 = AXIS2_PLACEMENT_3D ( 'NONE', #290, #133, #239 ) ;
#227 =( NAMED_UNIT ( * ) SI_UNIT ( $, .STERADIAN. ) SOLID_ANGLE_UNIT ( ) );
#228 = VERTEX_POINT ( 'NONE', #24 ) ;
#229 = CIRCLE ( 'NONE', #70, 1.430384493975580318 ) ;
#230 = DATE_TIME_ROLE ( 'creation_date' ) ;
#231 = DATE_TIME_ROLE ( 'classification_date' ) ;
#232 = CALENDAR_DATE ( 2021, 2, 12 ) ;
#233 = CYLINDRICAL_SURFACE ( 'NONE', #30, 1.399999999999998801 ) ;
#234 = EDGE_LOOP ( 'NONE', ( #259 ) ) ;
#235 = APPROVAL_STATUS ( 'not_yet_approved' ) ;
#236 = ORIENTED_EDGE ( 'NONE', *, *, #127, .T. ) ;
#237 = DIRECTION ( 'NONE',  ( -3.491481338843133355E-15, 1.224646799147353207E-16, -1.000000000000000000 ) ) ;
#238 = TOROIDAL_SURFACE ( 'NONE', #274, 3.399999999999999911, 2.000000000000000000 ) ;
#239 = DIRECTION ( 'NONE',  ( -3.776333224288700318E-31, -1.000000000000000000, -1.062943306358338403E-16 ) ) ;
#240 = DIRECTION ( 'NONE',  ( -4.275831445896958607E-31, -1.000000000000000000, -1.224646799147353207E-16 ) ) ;
#241 = DIRECTION ( 'NONE',  ( -3.491481338843133355E-15, 1.224646799147353207E-16, -1.000000000000000000 ) ) ;
#242 = AXIS2_PLACEMENT_3D ( 'NONE', #4, #76, #167 ) ;
#243 = FACE_OUTER_BOUND ( 'NONE', #211, .T. ) ;
#244 = CARTESIAN_POINT ( 'NONE',  ( 3.491481338843133355E-14, -1.224646799147353256E-15, 10.00000000000000000 ) ) ;
#245 = DESIGN_CONTEXT ( 'detailed design', #78, 'design' ) ;
#246 = VERTEX_POINT ( 'NONE', #42 ) ;
#247 = VERTEX_POINT ( 'NONE', #23 ) ;
#248 = APPROVAL_PERSON_ORGANIZATION ( #193, #117, #52 ) ;
#249 = DIRECTION ( 'NONE',  ( -3.491481338843133355E-15, 1.224646799147353207E-16, -1.000000000000000000 ) ) ;
#250 = APPROVAL ( #50, 'UNSPECIFIED' ) ;
#251 = PERSON_AND_ORGANIZATION ( #300, #91 ) ;
#252 = ORIENTED_EDGE ( 'NONE', *, *, #132, .F. ) ;
#253 = CC_DESIGN_APPROVAL ( #66, ( #102 ) ) ;
#254 = MANIFOLD_SOLID_BREP ( 'Corps-Déplacer/Copier1[1]', #296 ) ;
#255 = PERSON_AND_ORGANIZATION_ROLE ( 'design_supplier' ) ;
#256 = FACE_OUTER_BOUND ( 'NONE', #105, .T. ) ;
#257 = PERSON_AND_ORGANIZATION_ROLE ( 'creator' ) ;
#258 = FACE_OUTER_BOUND ( 'NONE', #148, .T. ) ;
#259 = ORIENTED_EDGE ( 'NONE', *, *, #214, .T. ) ;
#260 = AXIS2_PLACEMENT_3D ( 'NONE', #223, #271, #39 ) ;
#261 = EDGE_LOOP ( 'NONE', ( #125 ) ) ;
#262 = EDGE_LOOP ( 'NONE', ( #236 ) ) ;
#263 = EDGE_CURVE ( 'NONE', #205, #205, #151, .T. ) ;
#264 = DIRECTION ( 'NONE',  ( -4.275831445896958607E-31, -1.000000000000000000, -1.224646799147353207E-16 ) ) ;
#265 = AXIS2_PLACEMENT_3D ( 'NONE', #43, #181, #159 ) ;
#266 = AXIS2_PLACEMENT_3D ( 'NONE', #158, #129, #264 ) ;
#267 = DIRECTION ( 'NONE',  ( 4.275831445896958607E-31, 1.000000000000000000, 1.224646799147353207E-16 ) ) ;
#268 = DIRECTION ( 'NONE',  ( -3.491481338843133355E-15, 1.224646799147353207E-16, -1.000000000000000000 ) ) ;
#269 = DIRECTION ( 'NONE',  ( -3.491481338843133355E-15, 1.224646799147353207E-16, -1.000000000000000000 ) ) ;
#270 = AXIS2_PLACEMENT_3D ( 'NONE', #272, #73, #71 ) ;
#271 = DIRECTION ( 'NONE',  ( 3.491481338843133355E-15, -1.224646799147353207E-16, 1.000000000000000000 ) ) ;
#272 = CARTESIAN_POINT ( 'NONE',  ( 8.987808100725203251E-14, -3.152498711492696494E-15, 25.74210550901360861 ) ) ;
#273 = CALENDAR_DATE ( 2021, 2, 12 ) ;
#274 = AXIS2_PLACEMENT_3D ( 'NONE', #177, #112, #267 ) ;
#275 = CARTESIAN_POINT ( 'NONE',  ( 3.570097838786349099E-14, 1.399999999999997025, 10.22516660498395957 ) ) ;
#276 = ADVANCED_FACE ( 'NONE', ( #90 ), #113, .T. ) ;
#277 = EDGE_CURVE ( 'NONE', #95, #95, #208, .T. ) ;
#278 = CARTESIAN_POINT ( 'NONE',  ( 5.883350707550854589E-31, -2.063601638681758518E-32, 1.685058614547899244E-16 ) ) ;
#279 = COORDINATED_UNIVERSAL_TIME_OFFSET ( 1, 0, .AHEAD. ) ;
#280 = PERSON_AND_ORGANIZATION ( #300, #91 ) ;
#281 = EDGE_LOOP ( 'NONE', ( #252 ) ) ;
#282 = CIRCLE ( 'NONE', #270, 1.499999999999996003 ) ;
#283 = APPROVAL_DATE_TIME ( #31, #250 ) ;
#284 = ORIENTED_EDGE ( 'NONE', *, *, #214, .F. ) ;
#285 = APPROVAL_DATE_TIME ( #121, #117 ) ;
#286 = ORIENTED_EDGE ( 'NONE', *, *, #263, .T. ) ;
#287 = EDGE_LOOP ( 'NONE', ( #192 ) ) ;
#288 = AXIS2_PLACEMENT_3D ( 'NONE', #179, #65, #291 ) ;
#289 = ORIENTED_EDGE ( 'NONE', *, *, #299, .T. ) ;
#290 = CARTESIAN_POINT ( 'NONE',  ( 8.728703347107827472E-16, -3.061616997868381169E-17, 0.2499999999999998335 ) ) ;
#291 = DIRECTION ( 'NONE',  ( 3.776333224288700318E-31, 1.000000000000000000, 1.062943306358338403E-16 ) ) ;
#292 = CLOSED_SHELL ( 'NONE', ( #141, #162, #47, #276 ) ) ;
#293 = DIRECTION ( 'NONE',  ( 3.491481338843133355E-15, -1.224646799147353207E-16, 1.000000000000000000 ) ) ;
#294 = CARTESIAN_POINT ( 'NONE',  ( 2.941675353775427294E-31, -1.031800819340879259E-32, 8.425293072739496222E-17 ) ) ;
#295 = FACE_OUTER_BOUND ( 'NONE', #9, .T. ) ;
#296 = CLOSED_SHELL ( 'NONE', ( #154, #34, #53, #79, #203, #12, #119, #206 ) ) ;
#297 = PRODUCT_DEFINITION_FORMATION_WITH_SPECIFIED_SOURCE ( 'ANY', '', #110, .NOT_KNOWN. ) ;
#298 = CARTESIAN_POINT ( 'NONE',  ( 8.849961221477468513E-14, 1.430384493975577209, 25.34729635533384240 ) ) ;
#299 = EDGE_CURVE ( 'NONE', #94, #94, #282, .T. ) ;
#300 = PERSON ( 'UNSPECIFIED', 'UNSPECIFIED', 'UNSPECIFIED', ('UNSPECIFIED'), ('UNSPECIFIED'), ('UNSPECIFIED') ) ;
#301 = APPLICATION_PROTOCOL_DEFINITION ( 'international standard', 'config_control_design', 1994, #163 ) ;
#302 = ORIENTED_EDGE ( 'NONE', *, *, #263, .F. ) ;
#303 = EDGE_CURVE ( 'NONE', #246, #246, #106, .T. ) ;
ENDSEC;
END-ISO-10303-21;
