ISO-10303-21;
HEADER;
FILE_DESCRIPTION (( 'STEP AP203' ),
    '1' );
FILE_NAME ('321531.step',
    '2021-12-02T07:17:57',
    ( '' ),
    ( '' ),
    'SwSTEP 2.0',
    'SolidWorks 2019',
    '' );
FILE_SCHEMA (( 'CONFIG_CONTROL_DESIGN' ));
ENDSEC;

DATA;
#1 = CARTESIAN_POINT ( 'NONE',  ( 3.491481338843133355E-14, 1.143566834279664373E-32, 10.00000000000000000 ) ) ;
#2 = PERSON ( 'UNSPECIFIED', 'UNSPECIFIED', 'UNSPECIFIED', ('UNSPECIFIED'), ('UNSPECIFIED'), ('UNSPECIFIED') ) ;
#3 = CARTESIAN_POINT ( 'NONE',  ( 8.849961221477468513E-14, -3.104148534859896361E-15, 25.34729635533384240 ) ) ;
#4 = AXIS2_PLACEMENT_3D ( 'NONE', #194, #288, #84 ) ;
#5 = FACE_BOUND ( 'NONE', #223, .T. ) ;
#6 = MECHANICAL_CONTEXT ( 'NONE', #148, 'mechanical' ) ;
#7 = VERTEX_POINT ( 'NONE', #83 ) ;
#8 = ADVANCED_FACE ( 'NONE', ( #163, #136 ), #229, .T. ) ;
#9 = CARTESIAN_POINT ( 'NONE',  ( 8.987808100725203251E-14, 1.499999999999992673, 25.74210550901360861 ) ) ;
#10 = CC_DESIGN_PERSON_AND_ORGANIZATION_ASSIGNMENT ( #104, #40, ( #55 ) ) ;
#11 = AXIS2_PLACEMENT_3D ( 'NONE', #3, #139, #232 ) ;
#12 = APPROVAL_PERSON_ORGANIZATION ( #70, #79, #13 ) ;
#13 = APPROVAL_ROLE ( '' ) ;
#14 = ORIENTED_EDGE ( 'NONE', *, *, #281, .T. ) ;
#15 = PERSON_AND_ORGANIZATION ( #2, #198 ) ;
#16 = FACE_OUTER_BOUND ( 'NONE', #249, .T. ) ;
#17 = ADVANCED_BREP_SHAPE_REPRESENTATION ( '321531', ( #93, #295, #4 ), #268 ) ;
#18 = PERSON_AND_ORGANIZATION ( #2, #198 ) ;
#19 = EDGE_LOOP ( 'NONE', ( #177 ) ) ;
#20 = DATE_AND_TIME ( #271, #204 ) ;
#21 = DIRECTION ( 'NONE',  ( -3.491481338843133355E-15, 1.224646799147353207E-16, -1.000000000000000000 ) ) ;
#22 = CC_DESIGN_PERSON_AND_ORGANIZATION_ASSIGNMENT ( #61, #65, ( #75 ) ) ;
#23 = ORIENTED_EDGE ( 'NONE', *, *, #227, .T. ) ;
#24 = DESIGN_CONTEXT ( 'detailed design', #180, 'design' ) ;
#25 = CARTESIAN_POINT ( 'NONE',  ( 1.059629106007008733E-31, -3.716678587160442031E-33, 3.034898380290659047E-17 ) ) ;
#26 = FACE_OUTER_BOUND ( 'NONE', #181, .T. ) ;
#27 = DIRECTION ( 'NONE',  ( -4.275831445896958607E-31, -1.000000000000000000, -1.224646799147353207E-16 ) ) ;
#28 = AXIS2_PLACEMENT_3D ( 'NONE', #205, #112, #244 ) ;
#29 = FACE_BOUND ( 'NONE', #154, .T. ) ;
#30 = CARTESIAN_POINT ( 'NONE',  ( 2.433562493173664138E-13, -8.535788190057053710E-15, 69.70000000000001705 ) ) ;
#31 = CARTESIAN_POINT ( 'NONE',  ( 8.849961221477468513E-14, 1.430384493975577209, 25.34729635533384240 ) ) ;
#32 = FACE_OUTER_BOUND ( 'NONE', #90, .T. ) ;
#33 = CC_DESIGN_PERSON_AND_ORGANIZATION_ASSIGNMENT ( #15, #199, ( #207 ) ) ;
#34 = PERSON_AND_ORGANIZATION ( #2, #198 ) ;
#35 = CARTESIAN_POINT ( 'NONE',  ( 8.728703347107833388E-14, 1.399999999999996803, 25.00000000000000000 ) ) ;
#36 = CIRCLE ( 'NONE', #28, 1.200000000000001510 ) ;
#37 = APPROVAL_STATUS ( 'not_yet_approved' ) ;
#38 = ORIENTED_EDGE ( 'NONE', *, *, #282, .T. ) ;
#39 = DIRECTION ( 'NONE',  ( 4.275831445896958607E-31, 1.000000000000000000, 1.224646799147353207E-16 ) ) ;
#40 = PERSON_AND_ORGANIZATION_ROLE ( 'classification_officer' ) ;
#41 = EDGE_LOOP ( 'NONE', ( #274 ) ) ;
#42 = AXIS2_PLACEMENT_3D ( 'NONE', #85, #157, #39 ) ;
#43 = LOCAL_TIME ( 8, 17, 57.00000000000000000, #153 ) ;
#44 = DATE_AND_TIME ( #159, #49 ) ;
#45 = EDGE_LOOP ( 'NONE', ( #246 ) ) ;
#46 = ORIENTED_EDGE ( 'NONE', *, *, #167, .F. ) ;
#47 = DIRECTION ( 'NONE',  ( -4.275831445896958607E-31, -1.000000000000000000, -1.224646799147353207E-16 ) ) ;
#48 = CIRCLE ( 'NONE', #11, 1.430384493975580318 ) ;
#49 = LOCAL_TIME ( 8, 17, 57.00000000000000000, #273 ) ;
#50 = CARTESIAN_POINT ( 'NONE',  ( 3.491481338843133355E-14, -1.224646799147353256E-15, 10.00000000000000000 ) ) ;
#51 = CC_DESIGN_PERSON_AND_ORGANIZATION_ASSIGNMENT ( #18, #248, ( #75 ) ) ;
#52 = DIRECTION ( 'NONE',  ( 3.491481338843133355E-15, -1.224646799147353207E-16, 1.000000000000000000 ) ) ;
#53 = CARTESIAN_POINT ( 'NONE',  ( 3.567074127250071595E-14, -1.251161180115476404E-15, 10.21650635094611381 ) ) ;
#54 = TOROIDAL_SURFACE ( 'NONE', #172, 3.399999999999999911, 2.000000000000000000 ) ;
#55 = SECURITY_CLASSIFICATION ( '', '', #155 ) ;
#56 = ADVANCED_FACE ( 'NONE', ( #16, #230 ), #258, .T. ) ;
#57 = CARTESIAN_POINT ( 'NONE',  ( 2.119258212014017466E-31, -7.433357174320884061E-33, 6.069796760581318094E-17 ) ) ;
#58 = AXIS2_PLACEMENT_3D ( 'NONE', #291, #113, #200 ) ;
#59 = VERTEX_POINT ( 'NONE', #31 ) ;
#60 = PERSON_AND_ORGANIZATION ( #2, #198 ) ;
#61 = PERSON_AND_ORGANIZATION ( #2, #198 ) ;
#62 = AXIS2_PLACEMENT_3D ( 'NONE', #280, #206, #47 ) ;
#63 = CONICAL_SURFACE ( 'NONE', #100, 1.524999999999998579, 0.7853981633974430610 ) ;
#64 = EDGE_LOOP ( 'NONE', ( #267 ) ) ;
#65 = PERSON_AND_ORGANIZATION_ROLE ( 'design_supplier' ) ;
#66 = EDGE_LOOP ( 'NONE', ( #38 ) ) ;
#67 = ORIENTED_EDGE ( 'NONE', *, *, #281, .F. ) ;
#68 = AXIS2_PLACEMENT_3D ( 'NONE', #276, #255, #208 ) ;
#69 = EDGE_CURVE ( 'NONE', #170, #170, #36, .T. ) ;
#70 = PERSON_AND_ORGANIZATION ( #2, #198 ) ;
#71 = EDGE_LOOP ( 'NONE', ( #221 ) ) ;
#72 = CYLINDRICAL_SURFACE ( 'NONE', #224, 1.499999999999998446 ) ;
#73 = FACE_OUTER_BOUND ( 'NONE', #19, .T. ) ;
#74 = APPROVAL_PERSON_ORGANIZATION ( #34, #105, #89 ) ;
#75 = PRODUCT_DEFINITION_FORMATION_WITH_SPECIFIED_SOURCE ( 'ANY', '', #151, .NOT_KNOWN. ) ;
#76 = DIRECTION ( 'NONE',  ( -3.491481338843133355E-15, 1.224646799147353207E-16, -1.000000000000000000 ) ) ;
#77 = DIRECTION ( 'NONE',  ( 4.275831445896958607E-31, 1.000000000000000000, 1.224646799147353207E-16 ) ) ;
#78 = DIRECTION ( 'NONE',  ( -3.491481338843133355E-15, 1.224646799147353207E-16, -1.000000000000000000 ) ) ;
#79 = APPROVAL ( #37, 'UNSPECIFIED' ) ;
#80 = AXIS2_PLACEMENT_3D ( 'NONE', #50, #78, #94 ) ;
#81 = VERTEX_POINT ( 'NONE', #286 ) ;
#82 = ADVANCED_FACE ( 'NONE', ( #293 ), #201, .F. ) ;
#83 = CARTESIAN_POINT ( 'NONE',  ( 3.567074127250071595E-14, 1.399999999999997025, 10.21650635094611381 ) ) ;
#84 = DIRECTION ( 'NONE',  ( 1.000000000000000000, 0.0000000000000000000, 0.0000000000000000000 ) ) ;
#85 = CARTESIAN_POINT ( 'NONE',  ( 2.444036937190193601E-13, 8.998558695971026591E-33, 70.00000000000000000 ) ) ;
#86 = AXIS2_PLACEMENT_3D ( 'NONE', #283, #140, #234 ) ;
#87 = CALENDAR_DATE ( 2021, 2, 12 ) ;
#88 = ORIENTED_EDGE ( 'NONE', *, *, #299, .T. ) ;
#89 = APPROVAL_ROLE ( '' ) ;
#90 = EDGE_LOOP ( 'NONE', ( #250 ) ) ;
#91 = ORIENTED_EDGE ( 'NONE', *, *, #227, .F. ) ;
#92 = DIRECTION ( 'NONE',  ( -3.491481338843133355E-15, 1.224646799147353207E-16, -1.000000000000000000 ) ) ;
#93 = MANIFOLD_SOLID_BREP ( 'Corps-Déplacer/Copier1[1]', #185 ) ;
#94 = DIRECTION ( 'NONE',  ( 0.0000000000000000000, 1.000000000000000000, 0.0000000000000000000 ) ) ;
#95 = CARTESIAN_POINT ( 'NONE',  ( 8.987808100725203251E-14, -3.152498711492696494E-15, 25.74210550901360861 ) ) ;
#96 = CARTESIAN_POINT ( 'NONE',  ( 8.728703347107827472E-16, -3.061616997868381169E-17, 0.2499999999999998335 ) ) ;
#97 = FACE_OUTER_BOUND ( 'NONE', #192, .T. ) ;
#98 = CC_DESIGN_PERSON_AND_ORGANIZATION_ASSIGNMENT ( #60, #150, ( #151 ) ) ;
#99 = VERTEX_POINT ( 'NONE', #191 ) ;
#100 = AXIS2_PLACEMENT_3D ( 'NONE', #190, #212, #264 ) ;
#101 = DIRECTION ( 'NONE',  ( -3.491481338843133355E-15, 1.224646799147353207E-16, -1.000000000000000000 ) ) ;
#102 = ADVANCED_FACE ( 'NONE', ( #173 ), #301, .F. ) ;
#103 = AXIS2_PLACEMENT_3D ( 'NONE', #57, #240, #287 ) ;
#104 = PERSON_AND_ORGANIZATION ( #2, #198 ) ;
#105 = APPROVAL ( #211, 'UNSPECIFIED' ) ;
#106 = PERSON_AND_ORGANIZATION ( #2, #198 ) ;
#107 = CARTESIAN_POINT ( 'NONE',  ( 0.0000000000000000000, 0.0000000000000000000, 0.0000000000000000000 ) ) ;
#108 = DATE_AND_TIME ( #162, #187 ) ;
#109 = LOCAL_TIME ( 8, 17, 57.00000000000000000, #178 ) ;
#110 = DIRECTION ( 'NONE',  ( 4.275831445896958607E-31, 1.000000000000000000, 1.224646799147353207E-16 ) ) ;
#111 = APPROVAL_STATUS ( 'not_yet_approved' ) ;
#112 = DIRECTION ( 'NONE',  ( -3.491481338843133355E-15, 1.224646799147353207E-16, -1.000000000000000000 ) ) ;
#113 = DIRECTION ( 'NONE',  ( -3.491481338843133355E-15, 1.224646799147353207E-16, -1.000000000000000000 ) ) ;
#114 = AXIS2_PLACEMENT_3D ( 'NONE', #1, #52, #189 ) ;
#115 = DIRECTION ( 'NONE',  ( 0.0000000000000000000, 1.000000000000000000, 0.0000000000000000000 ) ) ;
#116 = DIRECTION ( 'NONE',  ( 0.0000000000000000000, 1.000000000000000000, 0.0000000000000000000 ) ) ;
#117 = DIRECTION ( 'NONE',  ( -3.491481338843133355E-15, 1.224646799147353207E-16, -1.000000000000000000 ) ) ;
#118 = CONICAL_SURFACE ( 'NONE', #152, 1.200000000000001510, 0.7853981633974566057 ) ;
#119 = ADVANCED_FACE ( 'NONE', ( #279, #97 ), #253, .T. ) ;
#120 = CARTESIAN_POINT ( 'NONE',  ( 2.444036937190193601E-13, -8.572527594031472993E-15, 70.00000000000000000 ) ) ;
#121 = FACE_OUTER_BOUND ( 'NONE', #41, .T. ) ;
#122 = CARTESIAN_POINT ( 'NONE',  ( 3.491481338843133355E-14, 1.524999999999998579, 10.00000000000000000 ) ) ;
#123 = CIRCLE ( 'NONE', #103, 1.275000000000001465 ) ;
#124 = VERTEX_POINT ( 'NONE', #171 ) ;
#125 = VERTEX_POINT ( 'NONE', #239 ) ;
#126 = AXIS2_PLACEMENT_3D ( 'NONE', #144, #101, #290 ) ;
#127 = CC_DESIGN_DATE_AND_TIME_ASSIGNMENT ( #108, #292, ( #207 ) ) ;
#128 = ORIENTED_EDGE ( 'NONE', *, *, #141, .T. ) ;
#129 = APPROVAL_ROLE ( '' ) ;
#130 = EDGE_LOOP ( 'NONE', ( #91 ) ) ;
#131 = EDGE_CURVE ( 'NONE', #193, #193, #203, .T. ) ;
#132 = AXIS2_PLACEMENT_3D ( 'NONE', #254, #233, #237 ) ;
#133 = EDGE_LOOP ( 'NONE', ( #88 ) ) ;
#134 = CALENDAR_DATE ( 2021, 2, 12 ) ;
#135 = EDGE_LOOP ( 'NONE', ( #226 ) ) ;
#136 = FACE_OUTER_BOUND ( 'NONE', #135, .T. ) ;
#137 = ADVANCED_FACE ( 'NONE', ( #73, #210 ), #54, .F. ) ;
#138 = DIRECTION ( 'NONE',  ( -3.491481338843133355E-15, 1.224646799147353207E-16, -1.000000000000000000 ) ) ;
#139 = DIRECTION ( 'NONE',  ( -3.491481338843133355E-15, 1.224646799147353207E-16, -1.000000000000000000 ) ) ;
#140 = DIRECTION ( 'NONE',  ( -3.491481338843133355E-15, 1.224646799147353207E-16, -1.000000000000000000 ) ) ;
#141 = EDGE_CURVE ( 'NONE', #59, #59, #48, .T. ) ;
#142 = DIRECTION ( 'NONE',  ( -3.491481338843133355E-15, 1.224646799147353207E-16, -1.000000000000000000 ) ) ;
#143 = FACE_OUTER_BOUND ( 'NONE', #176, .T. ) ;
#144 = CARTESIAN_POINT ( 'NONE',  ( 3.491481338843133355E-14, -1.224646799147353256E-15, 10.00000000000000000 ) ) ;
#145 = VERTEX_POINT ( 'NONE', #122 ) ;
#146 = CC_DESIGN_APPROVAL ( #79, ( #75 ) ) ;
#147 = APPLICATION_PROTOCOL_DEFINITION ( 'international standard', 'config_control_design', 1994, #180 ) ;
#148 = APPLICATION_CONTEXT ( 'configuration controlled 3d designs of mechanical parts and assemblies' ) ;
#149 = ADVANCED_FACE ( 'NONE', ( #300 ), #209, .F. ) ;
#150 = PERSON_AND_ORGANIZATION_ROLE ( 'design_owner' ) ;
#151 = PRODUCT ( '321531', '321531', '', ( #6 ) ) ;
#152 = AXIS2_PLACEMENT_3D ( 'NONE', #120, #92, #116 ) ;
#153 = COORDINATED_UNIVERSAL_TIME_OFFSET ( 1, 0, .AHEAD. ) ;
#154 = EDGE_LOOP ( 'NONE', ( #297 ) ) ;
#155 = SECURITY_CLASSIFICATION_LEVEL ( 'unclassified' ) ;
#156 = ADVANCED_FACE ( 'NONE', ( #186, #121 ), #256, .T. ) ;
#157 = DIRECTION ( 'NONE',  ( -3.491481338843133355E-15, 1.224646799147353207E-16, -1.000000000000000000 ) ) ;
#158 = EDGE_LOOP ( 'NONE', ( #46 ) ) ;
#159 = CALENDAR_DATE ( 2021, 2, 12 ) ;
#160 = CIRCLE ( 'NONE', #195, 1.524999999999998579 ) ;
#161 = APPROVAL_PERSON_ORGANIZATION ( #106, #263, #129 ) ;
#162 = CALENDAR_DATE ( 2021, 2, 12 ) ;
#163 = FACE_OUTER_BOUND ( 'NONE', #130, .T. ) ;
#164 = DIRECTION ( 'NONE',  ( -3.491481338843133355E-15, 1.224646799147353207E-16, -1.000000000000000000 ) ) ;
#165 = DIRECTION ( 'NONE',  ( 0.0000000000000000000, 1.000000000000000000, 0.0000000000000000000 ) ) ;
#166 = DIRECTION ( 'NONE',  ( -3.491481338843133355E-15, 1.224646799147353207E-16, -1.000000000000000000 ) ) ;
#167 = EDGE_CURVE ( 'NONE', #81, #81, #160, .T. ) ;
#168 = DIRECTION ( 'NONE',  ( 4.275831445896958607E-31, 1.000000000000000000, 1.224646799147353207E-16 ) ) ;
#169 = AXIS2_PLACEMENT_3D ( 'NONE', #107, #21, #110 ) ;
#170 = VERTEX_POINT ( 'NONE', #217 ) ;
#171 = CARTESIAN_POINT ( 'NONE',  ( 7.570943305532645426E-31, 1.275000000000001465, 2.168404344971008868E-16 ) ) ;
#172 = AXIS2_PLACEMENT_3D ( 'NONE', #183, #117, #168 ) ;
#173 = FACE_OUTER_BOUND ( 'NONE', #133, .T. ) ;
#174 = CLOSED_SHELL ( 'NONE', ( #102, #303, #156, #202 ) ) ;
#175 = APPROVAL_DATE_TIME ( #44, #79 ) ;
#176 = EDGE_LOOP ( 'NONE', ( #14 ) ) ;
#177 = ORIENTED_EDGE ( 'NONE', *, *, #228, .F. ) ;
#178 = COORDINATED_UNIVERSAL_TIME_OFFSET ( 1, 0, .AHEAD. ) ;
#179 = EDGE_LOOP ( 'NONE', ( #275 ) ) ;
#180 = APPLICATION_CONTEXT ( 'configuration controlled 3d designs of mechanical parts and assemblies' ) ;
#181 = EDGE_LOOP ( 'NONE', ( #67 ) ) ;
#182 = FACE_OUTER_BOUND ( 'NONE', #71, .T. ) ;
#183 = CARTESIAN_POINT ( 'NONE',  ( 8.728703347107833388E-14, -3.035766082959412415E-15, 25.00000000000000000 ) ) ;
#184 = EDGE_CURVE ( 'NONE', #145, #145, #219, .T. ) ;
#185 = CLOSED_SHELL ( 'NONE', ( #149, #56, #8, #137, #119, #216, #257, #82 ) ) ;
#186 = FACE_OUTER_BOUND ( 'NONE', #158, .T. ) ;
#187 = LOCAL_TIME ( 8, 17, 57.00000000000000000, #266 ) ;
#188 = PLANE ( 'NONE',  #62 ) ;
#189 = DIRECTION ( 'NONE',  ( -4.275831445896958607E-31, -1.000000000000000000, -1.224646799147353207E-16 ) ) ;
#190 = CARTESIAN_POINT ( 'NONE',  ( 8.728703347107827472E-16, -3.061616997868381169E-17, 0.2499999999999998335 ) ) ;
#191 = CARTESIAN_POINT ( 'NONE',  ( 2.433562493173664138E-13, 1.499999999999992673, 69.70000000000001705 ) ) ;
#192 = EDGE_LOOP ( 'NONE', ( #242 ) ) ;
#193 = VERTEX_POINT ( 'NONE', #9 ) ;
#194 = CARTESIAN_POINT ( 'NONE',  ( 0.0000000000000000000, 0.0000000000000000000, 0.0000000000000000000 ) ) ;
#195 = AXIS2_PLACEMENT_3D ( 'NONE', #96, #76, #236 ) ;
#196 = DATE_AND_TIME ( #87, #43 ) ;
#197 = ORIENTED_EDGE ( 'NONE', *, *, #299, .F. ) ;
#198 = ORGANIZATION ( 'UNSPECIFIED', 'UNSPECIFIED', '' ) ;
#199 = PERSON_AND_ORGANIZATION_ROLE ( 'creator' ) ;
#200 = DIRECTION ( 'NONE',  ( 0.0000000000000000000, 1.000000000000000000, 0.0000000000000000000 ) ) ;
#201 = PLANE ( 'NONE',  #42 ) ;
#202 = ADVANCED_FACE ( 'NONE', ( #182 ), #188, .T. ) ;
#203 = CIRCLE ( 'NONE', #302, 1.499999999999996003 ) ;
#204 = LOCAL_TIME ( 8, 17, 57.00000000000000000, #241 ) ;
#205 = CARTESIAN_POINT ( 'NONE',  ( 2.444036937190193601E-13, -8.572527594031472993E-15, 70.00000000000000000 ) ) ;
#206 = DIRECTION ( 'NONE',  ( 3.491481338843133355E-15, -1.224646799147353207E-16, 1.000000000000000000 ) ) ;
#207 = PRODUCT_DEFINITION ( 'UNKNOWN', '', #75, #24 ) ;
#208 = DIRECTION ( 'NONE',  ( 0.0000000000000000000, -1.000000000000000000, 0.0000000000000000000 ) ) ;
#209 = PLANE ( 'NONE',  #114 ) ;
#210 = FACE_OUTER_BOUND ( 'NONE', #270, .T. ) ;
#211 = APPROVAL_STATUS ( 'not_yet_approved' ) ;
#212 = DIRECTION ( 'NONE',  ( 3.491481338843133355E-15, -1.224646799147353207E-16, 1.000000000000000000 ) ) ;
#213 = CIRCLE ( 'NONE', #132, 1.399999999999999689 ) ;
#214 = CC_DESIGN_SECURITY_CLASSIFICATION ( #55, ( #75 ) ) ;
#215 = APPLICATION_PROTOCOL_DEFINITION ( 'international standard', 'config_control_design', 1994, #148 ) ;
#216 = ADVANCED_FACE ( 'NONE', ( #259, #143 ), #72, .T. ) ;
#217 = CARTESIAN_POINT ( 'NONE',  ( 2.444036937190193601E-13, 1.199999999999992628, 70.00000000000000000 ) ) ;
#218 =( LENGTH_UNIT ( ) NAMED_UNIT ( * ) SI_UNIT ( .MILLI., .METRE. ) );
#219 = CIRCLE ( 'NONE', #80, 1.524999999999999911 ) ;
#220 = PRODUCT_DEFINITION_SHAPE ( 'NONE', 'NONE',  #207 ) ;
#221 = ORIENTED_EDGE ( 'NONE', *, *, #184, .F. ) ;
#222 = DATE_TIME_ROLE ( 'classification_date' ) ;
#223 = EDGE_LOOP ( 'NONE', ( #197 ) ) ;
#224 = AXIS2_PLACEMENT_3D ( 'NONE', #277, #164, #77 ) ;
#225 = CC_DESIGN_APPROVAL ( #263, ( #55 ) ) ;
#226 = ORIENTED_EDGE ( 'NONE', *, *, #228, .T. ) ;
#227 = EDGE_CURVE ( 'NONE', #7, #7, #284, .T. ) ;
#228 = EDGE_CURVE ( 'NONE', #260, #260, #213, .T. ) ;
#229 = CYLINDRICAL_SURFACE ( 'NONE', #169, 1.399999999999998801 ) ;
#230 = FACE_BOUND ( 'NONE', #294, .T. ) ;
#231 = AXIS2_PLACEMENT_3D ( 'NONE', #25, #252, #27 ) ;
#232 = DIRECTION ( 'NONE',  ( 0.0000000000000000000, 1.000000000000000000, 0.0000000000000000000 ) ) ;
#233 = DIRECTION ( 'NONE',  ( -3.491481338843133355E-15, 1.224646799147353207E-16, -1.000000000000000000 ) ) ;
#234 = DIRECTION ( 'NONE',  ( 4.275831445896958607E-31, 1.000000000000000000, 1.224646799147353207E-16 ) ) ;
#235 = CIRCLE ( 'NONE', #126, 1.524999999999999911 ) ;
#236 = DIRECTION ( 'NONE',  ( 3.788714644696205145E-31, 1.000000000000000000, 1.066428366379185665E-16 ) ) ;
#237 = DIRECTION ( 'NONE',  ( 0.0000000000000000000, 1.000000000000000000, 0.0000000000000000000 ) ) ;
#238 = PRODUCT_RELATED_PRODUCT_CATEGORY ( 'detail', '', ( #151 ) ) ;
#239 = CARTESIAN_POINT ( 'NONE',  ( 3.491481338843133355E-14, 1.524999999999998579, 10.00000000000000000 ) ) ;
#240 = DIRECTION ( 'NONE',  ( -3.491481338843133355E-15, 1.224646799147353207E-16, -1.000000000000000000 ) ) ;
#241 = COORDINATED_UNIVERSAL_TIME_OFFSET ( 1, 0, .AHEAD. ) ;
#242 = ORIENTED_EDGE ( 'NONE', *, *, #131, .T. ) ;
#243 = APPROVAL_DATE_TIME ( #20, #263 ) ;
#244 = DIRECTION ( 'NONE',  ( 0.0000000000000000000, 1.000000000000000000, 0.0000000000000000000 ) ) ;
#245 = DATE_AND_TIME ( #134, #109 ) ;
#246 = ORIENTED_EDGE ( 'NONE', *, *, #141, .F. ) ;
#247 = AXIS2_PLACEMENT_3D ( 'NONE', #53, #142, #165 ) ;
#248 = PERSON_AND_ORGANIZATION_ROLE ( 'creator' ) ;
#249 = EDGE_LOOP ( 'NONE', ( #272 ) ) ;
#250 = ORIENTED_EDGE ( 'NONE', *, *, #167, .T. ) ;
#251 = UNCERTAINTY_MEASURE_WITH_UNIT (LENGTH_MEASURE( 1.000000000000000082E-05 ), #218, 'distance_accuracy_value', 'NONE');
#252 = DIRECTION ( 'NONE',  ( 3.491481338843133355E-15, -1.224646799147353207E-16, 1.000000000000000000 ) ) ;
#253 = CONICAL_SURFACE ( 'NONE', #68, 1.499999999999996003, 0.1745329251994282016 ) ;
#254 = CARTESIAN_POINT ( 'NONE',  ( 8.728703347107833388E-14, -3.061616997868383043E-15, 25.00000000000000000 ) ) ;
#255 = DIRECTION ( 'NONE',  ( 3.491481338843133355E-15, -1.224646799147353207E-16, 1.000000000000000000 ) ) ;
#256 = CYLINDRICAL_SURFACE ( 'NONE', #86, 1.524999999999999245 ) ;
#257 = ADVANCED_FACE ( 'NONE', ( #26, #29 ), #118, .T. ) ;
#258 = CONICAL_SURFACE ( 'NONE', #58, 1.399999999999998357, 0.5235987755982954850 ) ;
#259 = FACE_OUTER_BOUND ( 'NONE', #64, .T. ) ;
#260 = VERTEX_POINT ( 'NONE', #35 ) ;
#261 =( NAMED_UNIT ( * ) SI_UNIT ( $, .STERADIAN. ) SOLID_ANGLE_UNIT ( ) );
#262 = CIRCLE ( 'NONE', #289, 1.500000000000001110 ) ;
#263 = APPROVAL ( #111, 'UNSPECIFIED' ) ;
#264 = DIRECTION ( 'NONE',  ( -3.788714644696205145E-31, -1.000000000000000000, -1.066428366379185665E-16 ) ) ;
#265 = CC_DESIGN_DATE_AND_TIME_ASSIGNMENT ( #196, #222, ( #55 ) ) ;
#266 = COORDINATED_UNIVERSAL_TIME_OFFSET ( 1, 0, .AHEAD. ) ;
#267 = ORIENTED_EDGE ( 'NONE', *, *, #131, .F. ) ;
#268 =( GEOMETRIC_REPRESENTATION_CONTEXT ( 3 ) GLOBAL_UNCERTAINTY_ASSIGNED_CONTEXT ( ( #251 ) ) GLOBAL_UNIT_ASSIGNED_CONTEXT ( ( #218, #285, #261 ) ) REPRESENTATION_CONTEXT ( 'NONE', 'WORKASPACE' ) );
#269 = SHAPE_DEFINITION_REPRESENTATION ( #220, #17 ) ;
#270 = EDGE_LOOP ( 'NONE', ( #128 ) ) ;
#271 = CALENDAR_DATE ( 2021, 2, 12 ) ;
#272 = ORIENTED_EDGE ( 'NONE', *, *, #282, .F. ) ;
#273 = COORDINATED_UNIVERSAL_TIME_OFFSET ( 1, 0, .AHEAD. ) ;
#274 = ORIENTED_EDGE ( 'NONE', *, *, #184, .T. ) ;
#275 = ORIENTED_EDGE ( 'NONE', *, *, #69, .F. ) ;
#276 = CARTESIAN_POINT ( 'NONE',  ( 8.987808100725203251E-14, -3.152498711492696494E-15, 25.74210550901360861 ) ) ;
#277 = CARTESIAN_POINT ( 'NONE',  ( 0.0000000000000000000, 0.0000000000000000000, 0.0000000000000000000 ) ) ;
#278 = CC_DESIGN_APPROVAL ( #105, ( #207 ) ) ;
#279 = FACE_BOUND ( 'NONE', #45, .T. ) ;
#280 = CARTESIAN_POINT ( 'NONE',  ( 3.491481338843133355E-14, 1.143566834279664373E-32, 10.00000000000000000 ) ) ;
#281 = EDGE_CURVE ( 'NONE', #99, #99, #262, .T. ) ;
#282 = EDGE_CURVE ( 'NONE', #125, #125, #235, .T. ) ;
#283 = CARTESIAN_POINT ( 'NONE',  ( 0.0000000000000000000, 0.0000000000000000000, 0.0000000000000000000 ) ) ;
#284 = CIRCLE ( 'NONE', #247, 1.399999999999998357 ) ;
#285 =( NAMED_UNIT ( * ) PLANE_ANGLE_UNIT ( ) SI_UNIT ( $, .RADIAN. ) );
#286 = CARTESIAN_POINT ( 'NONE',  ( 8.728703347107833388E-16, 1.524999999999998579, 0.2500000000000000000 ) ) ;
#287 = DIRECTION ( 'NONE',  ( 4.275831445896958607E-31, 1.000000000000000000, 1.224646799147353207E-16 ) ) ;
#288 = DIRECTION ( 'NONE',  ( 0.0000000000000000000, 0.0000000000000000000, 1.000000000000000000 ) ) ;
#289 = AXIS2_PLACEMENT_3D ( 'NONE', #30, #138, #298 ) ;
#290 = DIRECTION ( 'NONE',  ( 0.0000000000000000000, 1.000000000000000000, 0.0000000000000000000 ) ) ;
#291 = CARTESIAN_POINT ( 'NONE',  ( 3.567074127250071595E-14, -1.251161180115476404E-15, 10.21650635094611381 ) ) ;
#292 = DATE_TIME_ROLE ( 'creation_date' ) ;
#293 = FACE_OUTER_BOUND ( 'NONE', #179, .T. ) ;
#294 = EDGE_LOOP ( 'NONE', ( #23 ) ) ;
#295 = MANIFOLD_SOLID_BREP ( 'Corps-Déplacer/Copier1[2]', #174 ) ;
#296 = APPROVAL_DATE_TIME ( #245, #105 ) ;
#297 = ORIENTED_EDGE ( 'NONE', *, *, #69, .T. ) ;
#298 = DIRECTION ( 'NONE',  ( 0.0000000000000000000, 1.000000000000000000, 0.0000000000000000000 ) ) ;
#299 = EDGE_CURVE ( 'NONE', #124, #124, #123, .T. ) ;
#300 = FACE_OUTER_BOUND ( 'NONE', #66, .T. ) ;
#301 = PLANE ( 'NONE',  #231 ) ;
#302 = AXIS2_PLACEMENT_3D ( 'NONE', #95, #166, #115 ) ;
#303 = ADVANCED_FACE ( 'NONE', ( #5, #32 ), #63, .T. ) ;
ENDSEC;
END-ISO-10303-21;
