ISO-10303-21;
HEADER;
FILE_DESCRIPTION (( 'STEP AP203' ),
    '1' );
FILE_NAME ('321530.step',
    '2021-12-02T07:17:56',
    ( '' ),
    ( '' ),
    'SwSTEP 2.0',
    'SolidWorks 2019',
    '' );
FILE_SCHEMA (( 'CONFIG_CONTROL_DESIGN' ));
ENDSEC;

DATA;
#1 = ADVANCED_FACE ( 'NONE', ( #99, #163 ), #132, .F. ) ;
#2 = EDGE_LOOP ( 'NONE', ( #186 ) ) ;
#3 = PERSON_AND_ORGANIZATION_ROLE ( 'creator' ) ;
#4 = ORIENTED_EDGE ( 'NONE', *, *, #299, .T. ) ;
#5 = EDGE_LOOP ( 'NONE', ( #255 ) ) ;
#6 = CC_DESIGN_PERSON_AND_ORGANIZATION_ASSIGNMENT ( #115, #3, ( #294 ) ) ;
#7 = AXIS2_PLACEMENT_3D ( 'NONE', #18, #201, #138 ) ;
#8 = FACE_OUTER_BOUND ( 'NONE', #35, .T. ) ;
#9 = CIRCLE ( 'NONE', #179, 1.270000000000001572 ) ;
#10 = CARTESIAN_POINT ( 'NONE',  ( 3.491481338843133355E-14, -1.224646799147353256E-15, 10.00000000000000000 ) ) ;
#11 = CARTESIAN_POINT ( 'NONE',  ( 2.444036937190193601E-13, -8.572527594031472993E-15, 70.00000000000000000 ) ) ;
#12 = LOCAL_TIME ( 8, 17, 56.00000000000000000, #277 ) ;
#13 = EDGE_CURVE ( 'NONE', #137, #137, #9, .T. ) ;
#14 = CARTESIAN_POINT ( 'NONE',  ( 2.433562493173664138E-13, -8.535788190057053710E-15, 69.70000000000001705 ) ) ;
#15 = DIRECTION ( 'NONE',  ( 4.275831445896958607E-31, 1.000000000000000000, 1.224646799147353207E-16 ) ) ;
#16 = VERTEX_POINT ( 'NONE', #93 ) ;
#17 = AXIS2_PLACEMENT_3D ( 'NONE', #214, #66, #225 ) ;
#18 = CARTESIAN_POINT ( 'NONE',  ( 0.0000000000000000000, 0.0000000000000000000, 0.0000000000000000000 ) ) ;
#19 = AXIS2_PLACEMENT_3D ( 'NONE', #192, #106, #108 ) ;
#20 = CC_DESIGN_PERSON_AND_ORGANIZATION_ASSIGNMENT ( #235, #96, ( #294 ) ) ;
#21 = VERTEX_POINT ( 'NONE', #295 ) ;
#22 = CARTESIAN_POINT ( 'NONE',  ( 3.785471652766322713E-31, 1.270000000000001572, 1.084202172485504434E-16 ) ) ;
#23 = APPROVAL_PERSON_ORGANIZATION ( #232, #256, #142 ) ;
#24 = APPROVAL_DATE_TIME ( #185, #246 ) ;
#25 = EDGE_LOOP ( 'NONE', ( #303 ) ) ;
#26 = CALENDAR_DATE ( 2021, 2, 12 ) ;
#27 = EDGE_LOOP ( 'NONE', ( #302 ) ) ;
#28 = EDGE_CURVE ( 'NONE', #298, #298, #136, .T. ) ;
#29 = COORDINATED_UNIVERSAL_TIME_OFFSET ( 1, 0, .AHEAD. ) ;
#30 = DIRECTION ( 'NONE',  ( 0.0000000000000000000, 1.000000000000000000, 0.0000000000000000000 ) ) ;
#31 = DATE_AND_TIME ( #227, #249 ) ;
#32 = DIRECTION ( 'NONE',  ( -3.491481338843133355E-15, 1.224646799147353207E-16, -1.000000000000000000 ) ) ;
#33 = APPROVAL_STATUS ( 'not_yet_approved' ) ;
#34 = ADVANCED_FACE ( 'NONE', ( #119 ), #187, .F. ) ;
#35 = EDGE_LOOP ( 'NONE', ( #98 ) ) ;
#36 = PRODUCT_DEFINITION_SHAPE ( 'NONE', 'NONE',  #198 ) ;
#37 = FACE_BOUND ( 'NONE', #233, .T. ) ;
#38 =( GEOMETRIC_REPRESENTATION_CONTEXT ( 3 ) GLOBAL_UNCERTAINTY_ASSIGNED_CONTEXT ( ( #92 ) ) GLOBAL_UNIT_ASSIGNED_CONTEXT ( ( #177, #272, #134 ) ) REPRESENTATION_CONTEXT ( 'NONE', 'WORKASPACE' ) );
#39 = DIRECTION ( 'NONE',  ( -3.491481338843133355E-15, 1.224646799147353207E-16, -1.000000000000000000 ) ) ;
#40 = CIRCLE ( 'NONE', #193, 1.399999999999998357 ) ;
#41 = DIRECTION ( 'NONE',  ( -3.491481338843133355E-15, 1.224646799147353207E-16, -1.000000000000000000 ) ) ;
#42 = EDGE_CURVE ( 'NONE', #135, #135, #84, .T. ) ;
#43 = DIRECTION ( 'NONE',  ( 0.0000000000000000000, -1.000000000000000000, 0.0000000000000000000 ) ) ;
#44 = FACE_OUTER_BOUND ( 'NONE', #248, .T. ) ;
#45 = APPROVAL_STATUS ( 'not_yet_approved' ) ;
#46 = CARTESIAN_POINT ( 'NONE',  ( 3.491481338843133355E-14, -1.224646799147353256E-15, 10.00000000000000000 ) ) ;
#47 = DIRECTION ( 'NONE',  ( -3.491481338843133355E-15, 1.224646799147353207E-16, -1.000000000000000000 ) ) ;
#48 = AXIS2_PLACEMENT_3D ( 'NONE', #279, #281, #77 ) ;
#49 = EDGE_LOOP ( 'NONE', ( #72 ) ) ;
#50 = ADVANCED_FACE ( 'NONE', ( #211, #147 ), #111, .T. ) ;
#51 = AXIS2_PLACEMENT_3D ( 'NONE', #14, #104, #264 ) ;
#52 = ORIENTED_EDGE ( 'NONE', *, *, #175, .F. ) ;
#53 = CARTESIAN_POINT ( 'NONE',  ( 8.728703347107833388E-14, -3.035766082959412415E-15, 25.00000000000000000 ) ) ;
#54 = CC_DESIGN_APPROVAL ( #109, ( #103 ) ) ;
#55 = CARTESIAN_POINT ( 'NONE',  ( -1.644834283522821847E-31, 5.769302038175821845E-33, -4.710992624316361803E-17 ) ) ;
#56 = FACE_OUTER_BOUND ( 'NONE', #251, .T. ) ;
#57 = CARTESIAN_POINT ( 'NONE',  ( 0.0000000000000000000, 0.0000000000000000000, 0.0000000000000000000 ) ) ;
#58 = CC_DESIGN_SECURITY_CLASSIFICATION ( #103, ( #294 ) ) ;
#59 = DIRECTION ( 'NONE',  ( 0.0000000000000000000, 1.000000000000000000, 0.0000000000000000000 ) ) ;
#60 = EDGE_CURVE ( 'NONE', #199, #199, #171, .T. ) ;
#61 = DIRECTION ( 'NONE',  ( 0.0000000000000000000, 1.000000000000000000, 0.0000000000000000000 ) ) ;
#62 = FACE_OUTER_BOUND ( 'NONE', #101, .T. ) ;
#63 = CIRCLE ( 'NONE', #226, 1.520000000000000018 ) ;
#64 = CC_DESIGN_DATE_AND_TIME_ASSIGNMENT ( #31, #100, ( #198 ) ) ;
#65 = VERTEX_POINT ( 'NONE', #158 ) ;
#66 = DIRECTION ( 'NONE',  ( 3.491481338843133355E-15, -1.224646799147353207E-16, 1.000000000000000000 ) ) ;
#67 = APPROVAL_PERSON_ORGANIZATION ( #241, #246, #222 ) ;
#68 = ADVANCED_FACE ( 'NONE', ( #81, #62 ), #160, .T. ) ;
#69 = APPROVAL_ROLE ( '' ) ;
#70 = EDGE_LOOP ( 'NONE', ( #254 ) ) ;
#71 = COORDINATED_UNIVERSAL_TIME_OFFSET ( 1, 0, .AHEAD. ) ;
#72 = ORIENTED_EDGE ( 'NONE', *, *, #13, .F. ) ;
#73 = DATE_AND_TIME ( #274, #12 ) ;
#74 = ORIENTED_EDGE ( 'NONE', *, *, #42, .T. ) ;
#75 = ADVANCED_FACE ( 'NONE', ( #290, #44 ), #240, .T. ) ;
#76 = SECURITY_CLASSIFICATION_LEVEL ( 'unclassified' ) ;
#77 = DIRECTION ( 'NONE',  ( -4.275831445896958607E-31, -1.000000000000000000, -1.224646799147353207E-16 ) ) ;
#78 = APPLICATION_CONTEXT ( 'configuration controlled 3d designs of mechanical parts and assemblies' ) ;
#79 = ORIENTED_EDGE ( 'NONE', *, *, #120, .F. ) ;
#80 = PRODUCT ( '321530', '321530', '', ( #161 ) ) ;
#81 = FACE_BOUND ( 'NONE', #49, .T. ) ;
#82 = CARTESIAN_POINT ( 'NONE',  ( 2.444036937190193601E-13, 8.998558695971026591E-33, 70.00000000000000000 ) ) ;
#83 = DIRECTION ( 'NONE',  ( -3.491481338843133355E-15, 1.224646799147353207E-16, -1.000000000000000000 ) ) ;
#84 = CIRCLE ( 'NONE', #300, 1.519999999999998685 ) ;
#85 = FACE_OUTER_BOUND ( 'NONE', #25, .T. ) ;
#86 = CC_DESIGN_APPROVAL ( #256, ( #294 ) ) ;
#87 = VERTEX_POINT ( 'NONE', #178 ) ;
#88 = CIRCLE ( 'NONE', #242, 1.200000000000001510 ) ;
#89 = CARTESIAN_POINT ( 'NONE',  ( 2.433562493173664138E-13, 1.499999999999992673, 69.70000000000001705 ) ) ;
#90 = DIRECTION ( 'NONE',  ( 0.0000000000000000000, 1.000000000000000000, 0.0000000000000000000 ) ) ;
#91 = EDGE_CURVE ( 'NONE', #243, #243, #88, .T. ) ;
#92 = UNCERTAINTY_MEASURE_WITH_UNIT (LENGTH_MEASURE( 1.000000000000000082E-05 ), #177, 'distance_accuracy_value', 'NONE');
#93 = CARTESIAN_POINT ( 'NONE',  ( 3.491481338843133355E-14, 1.519999999999998685, 10.00000000000000000 ) ) ;
#94 = PERSON_AND_ORGANIZATION ( #182, #139 ) ;
#95 = EDGE_LOOP ( 'NONE', ( #118 ) ) ;
#96 = PERSON_AND_ORGANIZATION_ROLE ( 'design_supplier' ) ;
#97 = CC_DESIGN_APPROVAL ( #246, ( #198 ) ) ;
#98 = ORIENTED_EDGE ( 'NONE', *, *, #219, .F. ) ;
#99 = FACE_OUTER_BOUND ( 'NONE', #283, .T. ) ;
#100 = DATE_TIME_ROLE ( 'creation_date' ) ;
#101 = EDGE_LOOP ( 'NONE', ( #74 ) ) ;
#102 = EDGE_LOOP ( 'NONE', ( #228 ) ) ;
#103 = SECURITY_CLASSIFICATION ( '', '', #76 ) ;
#104 = DIRECTION ( 'NONE',  ( -3.491481338843133355E-15, 1.224646799147353207E-16, -1.000000000000000000 ) ) ;
#105 = ADVANCED_FACE ( 'NONE', ( #293 ), #259, .F. ) ;
#106 = DIRECTION ( 'NONE',  ( 3.491481338843133355E-15, -1.224646799147353207E-16, 1.000000000000000000 ) ) ;
#107 = CARTESIAN_POINT ( 'NONE',  ( 0.0000000000000000000, 0.0000000000000000000, 0.0000000000000000000 ) ) ;
#108 = DIRECTION ( 'NONE',  ( -4.275831445896958607E-31, -1.000000000000000000, -1.224646799147353207E-16 ) ) ;
#109 = APPROVAL ( #206, 'UNSPECIFIED' ) ;
#110 = FACE_OUTER_BOUND ( 'NONE', #5, .T. ) ;
#111 = CONICAL_SURFACE ( 'NONE', #164, 1.200000000000001510, 0.7853981633974566057 ) ;
#112 = FACE_OUTER_BOUND ( 'NONE', #102, .T. ) ;
#113 = VERTEX_POINT ( 'NONE', #244 ) ;
#114 = ADVANCED_FACE ( 'NONE', ( #8, #110 ), #130, .T. ) ;
#115 = PERSON_AND_ORGANIZATION ( #182, #139 ) ;
#116 = AXIS2_PLACEMENT_3D ( 'NONE', #82, #149, #173 ) ;
#117 = EDGE_LOOP ( 'NONE', ( #141 ) ) ;
#118 = ORIENTED_EDGE ( 'NONE', *, *, #120, .T. ) ;
#119 = FACE_OUTER_BOUND ( 'NONE', #124, .T. ) ;
#120 = EDGE_CURVE ( 'NONE', #65, #65, #285, .T. ) ;
#121 = COORDINATED_UNIVERSAL_TIME_OFFSET ( 1, 0, .AHEAD. ) ;
#122 = DIRECTION ( 'NONE',  ( 3.801177521816916025E-31, 1.000000000000000000, 1.069936354426485528E-16 ) ) ;
#123 = PERSON_AND_ORGANIZATION_ROLE ( 'classification_officer' ) ;
#124 = EDGE_LOOP ( 'NONE', ( #4 ) ) ;
#125 = DIRECTION ( 'NONE',  ( 3.491481338843133355E-15, -1.224646799147353207E-16, 1.000000000000000000 ) ) ;
#126 = CONICAL_SURFACE ( 'NONE', #190, 1.399999999999998357, 0.5235987755982978165 ) ;
#127 = PLANE ( 'NONE',  #17 ) ;
#128 = CIRCLE ( 'NONE', #297, 1.499999999999996003 ) ;
#129 = DIRECTION ( 'NONE',  ( 4.275831445896958607E-31, 1.000000000000000000, 1.224646799147353207E-16 ) ) ;
#130 = CYLINDRICAL_SURFACE ( 'NONE', #155, 1.399999999999998801 ) ;
#131 = DIRECTION ( 'NONE',  ( 0.0000000000000000000, 1.000000000000000000, 0.0000000000000000000 ) ) ;
#132 = TOROIDAL_SURFACE ( 'NONE', #204, 3.399999999999999911, 2.000000000000000000 ) ;
#133 = CARTESIAN_POINT ( 'NONE',  ( 8.728703347107833388E-16, 1.519999999999998685, 0.2500000000000000000 ) ) ;
#134 =( NAMED_UNIT ( * ) SI_UNIT ( $, .STERADIAN. ) SOLID_ANGLE_UNIT ( ) );
#135 = VERTEX_POINT ( 'NONE', #133 ) ;
#136 = CIRCLE ( 'NONE', #291, 1.399999999999999689 ) ;
#137 = VERTEX_POINT ( 'NONE', #22 ) ;
#138 = DIRECTION ( 'NONE',  ( 1.000000000000000000, 0.0000000000000000000, 0.0000000000000000000 ) ) ;
#139 = ORGANIZATION ( 'UNSPECIFIED', 'UNSPECIFIED', '' ) ;
#140 = APPROVAL_DATE_TIME ( #73, #256 ) ;
#141 = ORIENTED_EDGE ( 'NONE', *, *, #91, .F. ) ;
#142 = APPROVAL_ROLE ( '' ) ;
#143 = EDGE_LOOP ( 'NONE', ( #191 ) ) ;
#144 = EDGE_CURVE ( 'NONE', #21, #21, #128, .T. ) ;
#145 = COORDINATED_UNIVERSAL_TIME_OFFSET ( 1, 0, .AHEAD. ) ;
#146 = CARTESIAN_POINT ( 'NONE',  ( 8.728703347107827472E-16, -3.061616997868381169E-17, 0.2499999999999998335 ) ) ;
#147 = FACE_BOUND ( 'NONE', #70, .T. ) ;
#148 = DIRECTION ( 'NONE',  ( 3.491481338843133355E-15, -1.224646799147353207E-16, 1.000000000000000000 ) ) ;
#149 = DIRECTION ( 'NONE',  ( -3.491481338843133355E-15, 1.224646799147353207E-16, -1.000000000000000000 ) ) ;
#150 = CARTESIAN_POINT ( 'NONE',  ( 8.987808100725203251E-14, -3.152498711492696494E-15, 25.74210550901360861 ) ) ;
#151 = DIRECTION ( 'NONE',  ( 0.0000000000000000000, 1.000000000000000000, 0.0000000000000000000 ) ) ;
#152 = CC_DESIGN_PERSON_AND_ORGANIZATION_ASSIGNMENT ( #209, #230, ( #198 ) ) ;
#153 = CARTESIAN_POINT ( 'NONE',  ( 8.728703347107827472E-16, -3.061616997868381169E-17, 0.2499999999999998335 ) ) ;
#154 = PERSON_AND_ORGANIZATION_ROLE ( 'design_owner' ) ;
#155 = AXIS2_PLACEMENT_3D ( 'NONE', #261, #287, #238 ) ;
#156 = DIRECTION ( 'NONE',  ( -3.491481338843133355E-15, 1.224646799147353207E-16, -1.000000000000000000 ) ) ;
#157 = PRODUCT_RELATED_PRODUCT_CATEGORY ( 'detail', '', ( #80 ) ) ;
#158 = CARTESIAN_POINT ( 'NONE',  ( 8.849961221477468513E-14, 1.430384493975577209, 25.34729635533384240 ) ) ;
#159 = CC_DESIGN_PERSON_AND_ORGANIZATION_ASSIGNMENT ( #280, #123, ( #103 ) ) ;
#160 = CONICAL_SURFACE ( 'NONE', #220, 1.519999999999998685, 0.7853981633974428389 ) ;
#161 = MECHANICAL_CONTEXT ( 'NONE', #78, 'mechanical' ) ;
#162 = CALENDAR_DATE ( 2021, 2, 12 ) ;
#163 = FACE_OUTER_BOUND ( 'NONE', #95, .T. ) ;
#164 = AXIS2_PLACEMENT_3D ( 'NONE', #11, #194, #131 ) ;
#165 = CARTESIAN_POINT ( 'NONE',  ( 8.728703347107833388E-14, -3.061616997868383043E-15, 25.00000000000000000 ) ) ;
#166 = EDGE_LOOP ( 'NONE', ( #168 ) ) ;
#167 = DATE_AND_TIME ( #162, #276 ) ;
#168 = ORIENTED_EDGE ( 'NONE', *, *, #42, .F. ) ;
#169 = ADVANCED_FACE ( 'NONE', ( #37, #213 ), #221, .T. ) ;
#170 = DIRECTION ( 'NONE',  ( 0.0000000000000000000, 1.000000000000000000, 0.0000000000000000000 ) ) ;
#171 = CIRCLE ( 'NONE', #51, 1.500000000000001110 ) ;
#172 = DIRECTION ( 'NONE',  ( -3.491481338843133355E-15, 1.224646799147353207E-16, -1.000000000000000000 ) ) ;
#173 = DIRECTION ( 'NONE',  ( 4.275831445896958607E-31, 1.000000000000000000, 1.224646799147353207E-16 ) ) ;
#174 = FACE_OUTER_BOUND ( 'NONE', #2, .T. ) ;
#175 = EDGE_CURVE ( 'NONE', #87, #87, #253, .T. ) ;
#176 = DIRECTION ( 'NONE',  ( -3.491481338843133355E-15, 1.224646799147353207E-16, -1.000000000000000000 ) ) ;
#177 =( LENGTH_UNIT ( ) NAMED_UNIT ( * ) SI_UNIT ( .MILLI., .METRE. ) );
#178 = CARTESIAN_POINT ( 'NONE',  ( 3.491481338843133355E-14, 1.519999999999998685, 10.00000000000000000 ) ) ;
#179 = AXIS2_PLACEMENT_3D ( 'NONE', #55, #278, #208 ) ;
#180 = AXIS2_PLACEMENT_3D ( 'NONE', #150, #125, #43 ) ;
#181 = PERSON_AND_ORGANIZATION ( #182, #139 ) ;
#182 = PERSON ( 'UNSPECIFIED', 'UNSPECIFIED', 'UNSPECIFIED', ('UNSPECIFIED'), ('UNSPECIFIED'), ('UNSPECIFIED') ) ;
#183 = CALENDAR_DATE ( 2021, 2, 12 ) ;
#184 = ORIENTED_EDGE ( 'NONE', *, *, #175, .T. ) ;
#185 = DATE_AND_TIME ( #183, #245 ) ;
#186 = ORIENTED_EDGE ( 'NONE', *, *, #144, .F. ) ;
#187 = PLANE ( 'NONE',  #48 ) ;
#188 = APPROVAL_DATE_TIME ( #167, #109 ) ;
#189 = DIRECTION ( 'NONE',  ( 4.275831445896958607E-31, 1.000000000000000000, 1.224646799147353207E-16 ) ) ;
#190 = AXIS2_PLACEMENT_3D ( 'NONE', #247, #156, #267 ) ;
#191 = ORIENTED_EDGE ( 'NONE', *, *, #60, .F. ) ;
#192 = CARTESIAN_POINT ( 'NONE',  ( 3.491481338843133355E-14, 1.139817434823009976E-32, 10.00000000000000000 ) ) ;
#193 = AXIS2_PLACEMENT_3D ( 'NONE', #237, #83, #260 ) ;
#194 = DIRECTION ( 'NONE',  ( -3.491481338843133355E-15, 1.224646799147353207E-16, -1.000000000000000000 ) ) ;
#195 = CARTESIAN_POINT ( 'NONE',  ( 2.444036937190193601E-13, -8.572527594031472993E-15, 70.00000000000000000 ) ) ;
#196 = CARTESIAN_POINT ( 'NONE',  ( 8.987808100725203251E-14, -3.152498711492696494E-15, 25.74210550901360861 ) ) ;
#197 = MANIFOLD_SOLID_BREP ( 'Corps-Déplacer/Copier1[1]', #234 ) ;
#198 = PRODUCT_DEFINITION ( 'UNKNOWN', '', #294, #270 ) ;
#199 = VERTEX_POINT ( 'NONE', #89 ) ;
#200 = LOCAL_TIME ( 8, 17, 56.00000000000000000, #29 ) ;
#201 = DIRECTION ( 'NONE',  ( 0.0000000000000000000, 0.0000000000000000000, 1.000000000000000000 ) ) ;
#202 = APPLICATION_CONTEXT ( 'configuration controlled 3d designs of mechanical parts and assemblies' ) ;
#203 = CARTESIAN_POINT ( 'NONE',  ( 2.444036937190193601E-13, 1.199999999999992628, 70.00000000000000000 ) ) ;
#204 = AXIS2_PLACEMENT_3D ( 'NONE', #53, #258, #189 ) ;
#205 = AXIS2_PLACEMENT_3D ( 'NONE', #10, #41, #170 ) ;
#206 = APPROVAL_STATUS ( 'not_yet_approved' ) ;
#207 = ORIENTED_EDGE ( 'NONE', *, *, #219, .T. ) ;
#208 = DIRECTION ( 'NONE',  ( 4.275831445896958607E-31, 1.000000000000000000, 1.224646799147353207E-16 ) ) ;
#209 = PERSON_AND_ORGANIZATION ( #182, #139 ) ;
#210 = ADVANCED_FACE ( 'NONE', ( #56 ), #217, .T. ) ;
#211 = FACE_OUTER_BOUND ( 'NONE', #143, .T. ) ;
#212 = EDGE_LOOP ( 'NONE', ( #207 ) ) ;
#213 = FACE_OUTER_BOUND ( 'NONE', #275, .T. ) ;
#214 = CARTESIAN_POINT ( 'NONE',  ( -8.224171417614109233E-32, 2.884651019087910922E-33, -2.355496312158180901E-17 ) ) ;
#215 = AXIS2_PLACEMENT_3D ( 'NONE', #107, #218, #15 ) ;
#216 = FACE_OUTER_BOUND ( 'NONE', #27, .T. ) ;
#217 = PLANE ( 'NONE',  #19 ) ;
#218 = DIRECTION ( 'NONE',  ( -3.491481338843133355E-15, 1.224646799147353207E-16, -1.000000000000000000 ) ) ;
#219 = EDGE_CURVE ( 'NONE', #113, #113, #40, .T. ) ;
#220 = AXIS2_PLACEMENT_3D ( 'NONE', #153, #148, #239 ) ;
#221 = CONICAL_SURFACE ( 'NONE', #180, 1.499999999999996003, 0.1745329251994282016 ) ;
#222 = APPROVAL_ROLE ( '' ) ;
#223 = ADVANCED_FACE ( 'NONE', ( #174, #85 ), #286, .T. ) ;
#224 = CARTESIAN_POINT ( 'NONE',  ( 8.728703347107833388E-14, 1.399999999999996803, 25.00000000000000000 ) ) ;
#225 = DIRECTION ( 'NONE',  ( -4.275831445896958607E-31, -1.000000000000000000, -1.224646799147353207E-16 ) ) ;
#226 = AXIS2_PLACEMENT_3D ( 'NONE', #46, #47, #90 ) ;
#227 = CALENDAR_DATE ( 2021, 2, 12 ) ;
#228 = ORIENTED_EDGE ( 'NONE', *, *, #299, .F. ) ;
#229 = ORIENTED_EDGE ( 'NONE', *, *, #144, .T. ) ;
#230 = PERSON_AND_ORGANIZATION_ROLE ( 'creator' ) ;
#231 = DIRECTION ( 'NONE',  ( -3.491481338843133355E-15, 1.224646799147353207E-16, -1.000000000000000000 ) ) ;
#232 = PERSON_AND_ORGANIZATION ( #182, #139 ) ;
#233 = EDGE_LOOP ( 'NONE', ( #79 ) ) ;
#234 = CLOSED_SHELL ( 'NONE', ( #34, #284, #114, #1, #169, #223, #50, #105 ) ) ;
#235 = PERSON_AND_ORGANIZATION ( #182, #139 ) ;
#236 = ORIENTED_EDGE ( 'NONE', *, *, #28, .F. ) ;
#237 = CARTESIAN_POINT ( 'NONE',  ( 3.564050415713793459E-14, -1.250100604876751360E-15, 10.20784609690826983 ) ) ;
#238 = DIRECTION ( 'NONE',  ( 4.275831445896958607E-31, 1.000000000000000000, 1.224646799147353207E-16 ) ) ;
#239 = DIRECTION ( 'NONE',  ( -3.801177521816916025E-31, -1.000000000000000000, -1.069936354426485528E-16 ) ) ;
#240 = CYLINDRICAL_SURFACE ( 'NONE', #215, 1.519999999999999352 ) ;
#241 = PERSON_AND_ORGANIZATION ( #182, #139 ) ;
#242 = AXIS2_PLACEMENT_3D ( 'NONE', #195, #172, #151 ) ;
#243 = VERTEX_POINT ( 'NONE', #203 ) ;
#244 = CARTESIAN_POINT ( 'NONE',  ( 3.564050415713793459E-14, 1.399999999999997025, 10.20784609690826983 ) ) ;
#245 = LOCAL_TIME ( 8, 17, 56.00000000000000000, #71 ) ;
#246 = APPROVAL ( #45, 'UNSPECIFIED' ) ;
#247 = CARTESIAN_POINT ( 'NONE',  ( 3.564050415713793459E-14, -1.250100604876751360E-15, 10.20784609690826983 ) ) ;
#248 = EDGE_LOOP ( 'NONE', ( #184 ) ) ;
#249 = LOCAL_TIME ( 8, 17, 56.00000000000000000, #145 ) ;
#250 = SHAPE_DEFINITION_REPRESENTATION ( #36, #271 ) ;
#251 = EDGE_LOOP ( 'NONE', ( #52 ) ) ;
#252 = AXIS2_PLACEMENT_3D ( 'NONE', #262, #289, #59 ) ;
#253 = CIRCLE ( 'NONE', #205, 1.520000000000000018 ) ;
#254 = ORIENTED_EDGE ( 'NONE', *, *, #91, .T. ) ;
#255 = ORIENTED_EDGE ( 'NONE', *, *, #28, .T. ) ;
#256 = APPROVAL ( #33, 'UNSPECIFIED' ) ;
#257 = DATE_TIME_ROLE ( 'classification_date' ) ;
#258 = DIRECTION ( 'NONE',  ( -3.491481338843133355E-15, 1.224646799147353207E-16, -1.000000000000000000 ) ) ;
#259 = PLANE ( 'NONE',  #116 ) ;
#260 = DIRECTION ( 'NONE',  ( 0.0000000000000000000, 1.000000000000000000, 0.0000000000000000000 ) ) ;
#261 = CARTESIAN_POINT ( 'NONE',  ( 0.0000000000000000000, 0.0000000000000000000, 0.0000000000000000000 ) ) ;
#262 = CARTESIAN_POINT ( 'NONE',  ( 8.849961221477468513E-14, -3.104148534859896361E-15, 25.34729635533384240 ) ) ;
#263 = CC_DESIGN_DATE_AND_TIME_ASSIGNMENT ( #301, #257, ( #103 ) ) ;
#264 = DIRECTION ( 'NONE',  ( 0.0000000000000000000, 1.000000000000000000, 0.0000000000000000000 ) ) ;
#265 = FACE_BOUND ( 'NONE', #212, .T. ) ;
#266 = CLOSED_SHELL ( 'NONE', ( #273, #68, #75, #210 ) ) ;
#267 = DIRECTION ( 'NONE',  ( 0.0000000000000000000, 1.000000000000000000, 0.0000000000000000000 ) ) ;
#268 = CC_DESIGN_PERSON_AND_ORGANIZATION_ASSIGNMENT ( #181, #154, ( #80 ) ) ;
#269 = APPLICATION_PROTOCOL_DEFINITION ( 'international standard', 'config_control_design', 1994, #78 ) ;
#270 = DESIGN_CONTEXT ( 'detailed design', #202, 'design' ) ;
#271 = ADVANCED_BREP_SHAPE_REPRESENTATION ( '321530', ( #197, #292, #7 ), #38 ) ;
#272 =( NAMED_UNIT ( * ) PLANE_ANGLE_UNIT ( ) SI_UNIT ( $, .RADIAN. ) );
#273 = ADVANCED_FACE ( 'NONE', ( #216 ), #127, .F. ) ;
#274 = CALENDAR_DATE ( 2021, 2, 12 ) ;
#275 = EDGE_LOOP ( 'NONE', ( #229 ) ) ;
#276 = LOCAL_TIME ( 8, 17, 56.00000000000000000, #121 ) ;
#277 = COORDINATED_UNIVERSAL_TIME_OFFSET ( 1, 0, .AHEAD. ) ;
#278 = DIRECTION ( 'NONE',  ( -3.491481338843133355E-15, 1.224646799147353207E-16, -1.000000000000000000 ) ) ;
#279 = CARTESIAN_POINT ( 'NONE',  ( 3.491481338843133355E-14, 1.139817434823009976E-32, 10.00000000000000000 ) ) ;
#280 = PERSON_AND_ORGANIZATION ( #182, #139 ) ;
#281 = DIRECTION ( 'NONE',  ( 3.491481338843133355E-15, -1.224646799147353207E-16, 1.000000000000000000 ) ) ;
#282 = APPROVAL_PERSON_ORGANIZATION ( #94, #109, #69 ) ;
#283 = EDGE_LOOP ( 'NONE', ( #236 ) ) ;
#284 = ADVANCED_FACE ( 'NONE', ( #112, #265 ), #126, .T. ) ;
#285 = CIRCLE ( 'NONE', #252, 1.430384493975580318 ) ;
#286 = CYLINDRICAL_SURFACE ( 'NONE', #288, 1.499999999999998446 ) ;
#287 = DIRECTION ( 'NONE',  ( -3.491481338843133355E-15, 1.224646799147353207E-16, -1.000000000000000000 ) ) ;
#288 = AXIS2_PLACEMENT_3D ( 'NONE', #57, #39, #129 ) ;
#289 = DIRECTION ( 'NONE',  ( -3.491481338843133355E-15, 1.224646799147353207E-16, -1.000000000000000000 ) ) ;
#290 = FACE_OUTER_BOUND ( 'NONE', #166, .T. ) ;
#291 = AXIS2_PLACEMENT_3D ( 'NONE', #165, #231, #30 ) ;
#292 = MANIFOLD_SOLID_BREP ( 'Corps-Déplacer/Copier1[2]', #266 ) ;
#293 = FACE_OUTER_BOUND ( 'NONE', #117, .T. ) ;
#294 = PRODUCT_DEFINITION_FORMATION_WITH_SPECIFIED_SOURCE ( 'ANY', '', #80, .NOT_KNOWN. ) ;
#295 = CARTESIAN_POINT ( 'NONE',  ( 8.987808100725203251E-14, 1.499999999999992673, 25.74210550901360861 ) ) ;
#296 = APPLICATION_PROTOCOL_DEFINITION ( 'international standard', 'config_control_design', 1994, #202 ) ;
#297 = AXIS2_PLACEMENT_3D ( 'NONE', #196, #176, #61 ) ;
#298 = VERTEX_POINT ( 'NONE', #224 ) ;
#299 = EDGE_CURVE ( 'NONE', #16, #16, #63, .T. ) ;
#300 = AXIS2_PLACEMENT_3D ( 'NONE', #146, #32, #122 ) ;
#301 = DATE_AND_TIME ( #26, #200 ) ;
#302 = ORIENTED_EDGE ( 'NONE', *, *, #13, .T. ) ;
#303 = ORIENTED_EDGE ( 'NONE', *, *, #60, .T. ) ;
ENDSEC;
END-ISO-10303-21;
