ISO-10303-21;
HEADER;
FILE_DESCRIPTION (( 'STEP AP203' ),
    '1' );
FILE_NAME ('321529.step',
    '2021-12-02T07:17:56',
    ( '' ),
    ( '' ),
    'SwSTEP 2.0',
    'SolidWorks 2019',
    '' );
FILE_SCHEMA (( 'CONFIG_CONTROL_DESIGN' ));
ENDSEC;

DATA;
#1 = ORIENTED_EDGE ( 'NONE', *, *, #229, .T. ) ;
#2 = PERSON_AND_ORGANIZATION ( #80, #296 ) ;
#3 = AXIS2_PLACEMENT_3D ( 'NONE', #85, #154, #218 ) ;
#4 = EDGE_LOOP ( 'NONE', ( #233 ) ) ;
#5 = VERTEX_POINT ( 'NONE', #259 ) ;
#6 = EDGE_CURVE ( 'NONE', #92, #92, #87, .T. ) ;
#7 = DIRECTION ( 'NONE',  ( 4.275831445896957731E-31, 1.000000000000000000, 1.224646799147352961E-16 ) ) ;
#8 = APPROVAL_STATUS ( 'not_yet_approved' ) ;
#9 = DIRECTION ( 'NONE',  ( -3.491481338843133355E-15, 1.224646799147353207E-16, -1.000000000000000000 ) ) ;
#10 = DATE_AND_TIME ( #37, #12 ) ;
#11 = FACE_OUTER_BOUND ( 'NONE', #52, .T. ) ;
#12 = LOCAL_TIME ( 8, 17, 56.00000000000000000, #148 ) ;
#13 = DIRECTION ( 'NONE',  ( 0.0000000000000000000, 1.000000000000000000, 0.0000000000000000000 ) ) ;
#14 = ADVANCED_FACE ( 'NONE', ( #35, #102 ), #206, .T. ) ;
#15 = MANIFOLD_SOLID_BREP ( 'Corps-Déplacer/Copier1[2]', #300 ) ;
#16 = SHAPE_DEFINITION_REPRESENTATION ( #114, #284 ) ;
#17 = MANIFOLD_SOLID_BREP ( 'Corps-Déplacer/Copier1[1]', #292 ) ;
#18 = APPROVAL_PERSON_ORGANIZATION ( #41, #83, #111 ) ;
#19 = EDGE_CURVE ( 'NONE', #48, #48, #160, .T. ) ;
#20 = DIRECTION ( 'NONE',  ( -3.491481338843133355E-15, 1.224646799147353207E-16, -1.000000000000000000 ) ) ;
#21 = DIRECTION ( 'NONE',  ( -3.491481338843133355E-15, 1.224646799147353207E-16, -1.000000000000000000 ) ) ;
#22 = DIRECTION ( 'NONE',  ( 3.491481338843133355E-15, -1.224646799147353207E-16, 1.000000000000000000 ) ) ;
#23 = CC_DESIGN_APPROVAL ( #293, ( #203 ) ) ;
#24 = DIRECTION ( 'NONE',  ( 3.813722662152945999E-31, 1.000000000000000000, 1.073467497510401476E-16 ) ) ;
#25 = CARTESIAN_POINT ( 'NONE',  ( 3.491481338843133355E-14, 1.136068035366355031E-32, 10.00000000000000000 ) ) ;
#26 = EDGE_LOOP ( 'NONE', ( #174 ) ) ;
#27 = COORDINATED_UNIVERSAL_TIME_OFFSET ( 1, 0, .AHEAD. ) ;
#28 = AXIS2_PLACEMENT_3D ( 'NONE', #235, #70, #65 ) ;
#29 = PRODUCT_RELATED_PRODUCT_CATEGORY ( 'detail', '', ( #276 ) ) ;
#30 = CARTESIAN_POINT ( 'NONE',  ( 0.0000000000000000000, 0.0000000000000000000, 0.0000000000000000000 ) ) ;
#31 = APPROVAL_DATE_TIME ( #240, #293 ) ;
#32 = ORIENTED_EDGE ( 'NONE', *, *, #19, .F. ) ;
#33 = DIRECTION ( 'NONE',  ( -3.491481338843133355E-15, 1.224646799147353207E-16, -1.000000000000000000 ) ) ;
#34 = CARTESIAN_POINT ( 'NONE',  ( 8.728703347107833388E-16, 1.514999999999998570, 0.2500000000000000000 ) ) ;
#35 = FACE_OUTER_BOUND ( 'NONE', #225, .T. ) ;
#36 = CARTESIAN_POINT ( 'NONE',  ( 2.973744089619655241E-31, -1.043049017710843410E-32, 8.517141582675549358E-17 ) ) ;
#37 = CALENDAR_DATE ( 2021, 2, 12 ) ;
#38 = EDGE_LOOP ( 'NONE', ( #223 ) ) ;
#39 = CIRCLE ( 'NONE', #82, 1.399999999999998357 ) ;
#40 = ADVANCED_FACE ( 'NONE', ( #11, #195 ), #287, .T. ) ;
#41 = PERSON_AND_ORGANIZATION ( #80, #296 ) ;
#42 = TOROIDAL_SURFACE ( 'NONE', #117, 3.399999999999999911, 2.000000000000000000 ) ;
#43 = CARTESIAN_POINT ( 'NONE',  ( 3.491481338843133355E-14, 1.514999999999998570, 10.00000000000000000 ) ) ;
#44 = CARTESIAN_POINT ( 'NONE',  ( 8.728703347107833388E-14, -3.035766082959412415E-15, 25.00000000000000000 ) ) ;
#45 = CARTESIAN_POINT ( 'NONE',  ( 3.491481338843133355E-14, -1.224646799147353256E-15, 10.00000000000000000 ) ) ;
#46 = DIRECTION ( 'NONE',  ( 0.0000000000000000000, -1.000000000000000000, 0.0000000000000000000 ) ) ;
#47 = CONICAL_SURFACE ( 'NONE', #224, 1.514999999999998570, 0.7853981633974432830 ) ;
#48 = VERTEX_POINT ( 'NONE', #212 ) ;
#49 = APPROVAL ( #216, 'UNSPECIFIED' ) ;
#50 = AXIS2_PLACEMENT_3D ( 'NONE', #286, #173, #198 ) ;
#51 = PERSON_AND_ORGANIZATION ( #80, #296 ) ;
#52 = EDGE_LOOP ( 'NONE', ( #147 ) ) ;
#53 = PERSON_AND_ORGANIZATION ( #80, #296 ) ;
#54 = ORIENTED_EDGE ( 'NONE', *, *, #61, .F. ) ;
#55 = CARTESIAN_POINT ( 'NONE',  ( 3.561026704177517217E-14, 1.399999999999997025, 10.19918584287042762 ) ) ;
#56 = ORIENTED_EDGE ( 'NONE', *, *, #86, .T. ) ;
#57 = PERSON_AND_ORGANIZATION ( #80, #296 ) ;
#58 = CARTESIAN_POINT ( 'NONE',  ( 5.947488179239310483E-31, -2.086098035421686820E-32, 1.703428316535109872E-16 ) ) ;
#59 = CC_DESIGN_PERSON_AND_ORGANIZATION_ASSIGNMENT ( #110, #270, ( #74 ) ) ;
#60 = DIRECTION ( 'NONE',  ( -3.491481338843133355E-15, 1.224646799147353207E-16, -1.000000000000000000 ) ) ;
#61 = EDGE_CURVE ( 'NONE', #299, #299, #166, .T. ) ;
#62 = DIRECTION ( 'NONE',  ( -3.491481338843133355E-15, 1.224646799147353207E-16, -1.000000000000000000 ) ) ;
#63 = AXIS2_PLACEMENT_3D ( 'NONE', #230, #21, #24 ) ;
#64 = DIRECTION ( 'NONE',  ( 0.0000000000000000000, 1.000000000000000000, 0.0000000000000000000 ) ) ;
#65 = DIRECTION ( 'NONE',  ( 4.275831445896958607E-31, 1.000000000000000000, 1.224646799147353207E-16 ) ) ;
#66 = ADVANCED_FACE ( 'NONE', ( #191 ), #109, .F. ) ;
#67 = CIRCLE ( 'NONE', #251, 1.514999999999999902 ) ;
#68 = DIRECTION ( 'NONE',  ( -3.491481338843133355E-15, 1.224646799147353207E-16, -1.000000000000000000 ) ) ;
#69 = ADVANCED_FACE ( 'NONE', ( #151 ), #78, .F. ) ;
#70 = DIRECTION ( 'NONE',  ( -3.491481338843133355E-15, 1.224646799147353207E-16, -1.000000000000000000 ) ) ;
#71 = VERTEX_POINT ( 'NONE', #34 ) ;
#72 = DIRECTION ( 'NONE',  ( 1.000000000000000000, 0.0000000000000000000, 0.0000000000000000000 ) ) ;
#73 = CIRCLE ( 'NONE', #152, 1.399999999999999689 ) ;
#74 = SECURITY_CLASSIFICATION ( '', '', #199 ) ;
#75 = APPLICATION_PROTOCOL_DEFINITION ( 'international standard', 'config_control_design', 1994, #189 ) ;
#76 = EDGE_LOOP ( 'NONE', ( #56 ) ) ;
#77 =( NAMED_UNIT ( * ) PLANE_ANGLE_UNIT ( ) SI_UNIT ( $, .RADIAN. ) );
#78 = PLANE ( 'NONE',  #288 ) ;
#79 = DIRECTION ( 'NONE',  ( 0.0000000000000000000, 0.0000000000000000000, 1.000000000000000000 ) ) ;
#80 = PERSON ( 'UNSPECIFIED', 'UNSPECIFIED', 'UNSPECIFIED', ('UNSPECIFIED'), ('UNSPECIFIED'), ('UNSPECIFIED') ) ;
#81 = AXIS2_PLACEMENT_3D ( 'NONE', #193, #9, #290 ) ;
#82 = AXIS2_PLACEMENT_3D ( 'NONE', #228, #294, #273 ) ;
#83 = APPROVAL ( #150, 'UNSPECIFIED' ) ;
#84 = DIRECTION ( 'NONE',  ( 0.0000000000000000000, 1.000000000000000000, 0.0000000000000000000 ) ) ;
#85 = CARTESIAN_POINT ( 'NONE',  ( 0.0000000000000000000, 0.0000000000000000000, 0.0000000000000000000 ) ) ;
#86 = EDGE_CURVE ( 'NONE', #192, #192, #238, .T. ) ;
#87 = CIRCLE ( 'NONE', #178, 1.265000000000001457 ) ;
#88 = DIRECTION ( 'NONE',  ( 4.275831445896958607E-31, 1.000000000000000000, 1.224646799147353207E-16 ) ) ;
#89 = CONICAL_SURFACE ( 'NONE', #301, 1.200000000000001510, 0.7853981633974566057 ) ;
#90 = ADVANCED_FACE ( 'NONE', ( #220, #249 ), #133, .T. ) ;
#91 = PLANE ( 'NONE',  #215 ) ;
#92 = VERTEX_POINT ( 'NONE', #255 ) ;
#93 = CARTESIAN_POINT ( 'NONE',  ( 8.728703347107833388E-14, -3.061616997868383043E-15, 25.00000000000000000 ) ) ;
#94 = EDGE_CURVE ( 'NONE', #239, #239, #73, .T. ) ;
#95 = CARTESIAN_POINT ( 'NONE',  ( 8.987808100725203251E-14, -3.152498711492696494E-15, 25.74210550901360861 ) ) ;
#96 = VERTEX_POINT ( 'NONE', #103 ) ;
#97 = APPLICATION_CONTEXT ( 'configuration controlled 3d designs of mechanical parts and assemblies' ) ;
#98 = CALENDAR_DATE ( 2021, 2, 12 ) ;
#99 = ORIENTED_EDGE ( 'NONE', *, *, #61, .T. ) ;
#100 = CC_DESIGN_PERSON_AND_ORGANIZATION_ASSIGNMENT ( #53, #219, ( #265 ) ) ;
#101 = PERSON_AND_ORGANIZATION_ROLE ( 'creator' ) ;
#102 = FACE_BOUND ( 'NONE', #143, .T. ) ;
#103 = CARTESIAN_POINT ( 'NONE',  ( 8.849961221477468513E-14, 1.430384493975577209, 25.34729635533384240 ) ) ;
#104 = ORIENTED_EDGE ( 'NONE', *, *, #202, .T. ) ;
#105 = APPLICATION_PROTOCOL_DEFINITION ( 'international standard', 'config_control_design', 1994, #97 ) ;
#106 = ORIENTED_EDGE ( 'NONE', *, *, #285, .T. ) ;
#107 = CC_DESIGN_APPROVAL ( #83, ( #74 ) ) ;
#108 = EDGE_LOOP ( 'NONE', ( #130 ) ) ;
#109 = PLANE ( 'NONE',  #50 ) ;
#110 = PERSON_AND_ORGANIZATION ( #80, #296 ) ;
#111 = APPROVAL_ROLE ( '' ) ;
#112 = AXIS2_PLACEMENT_3D ( 'NONE', #283, #128, #84 ) ;
#113 = CC_DESIGN_APPROVAL ( #49, ( #265 ) ) ;
#114 = PRODUCT_DEFINITION_SHAPE ( 'NONE', 'NONE',  #265 ) ;
#115 = CARTESIAN_POINT ( 'NONE',  ( 8.849961221477468513E-14, -3.104148534859896361E-15, 25.34729635533384240 ) ) ;
#116 = CARTESIAN_POINT ( 'NONE',  ( 8.728703347107827472E-16, -3.061616997868381169E-17, 0.2499999999999998335 ) ) ;
#117 = AXIS2_PLACEMENT_3D ( 'NONE', #44, #68, #185 ) ;
#118 = DIRECTION ( 'NONE',  ( -4.275831445896958607E-31, -1.000000000000000000, -1.224646799147353207E-16 ) ) ;
#119 = ADVANCED_FACE ( 'NONE', ( #157, #180 ), #159, .T. ) ;
#120 = DIRECTION ( 'NONE',  ( 3.491481338843133355E-15, -1.224646799147353207E-16, 1.000000000000000000 ) ) ;
#121 = DIRECTION ( 'NONE',  ( -3.813722662152945999E-31, -1.000000000000000000, -1.073467497510401476E-16 ) ) ;
#122 = EDGE_LOOP ( 'NONE', ( #164 ) ) ;
#123 = AXIS2_PLACEMENT_3D ( 'NONE', #171, #33, #291 ) ;
#124 = APPROVAL_PERSON_ORGANIZATION ( #244, #49, #169 ) ;
#125 = DATE_AND_TIME ( #98, #141 ) ;
#126 = DATE_AND_TIME ( #168, #243 ) ;
#127 = DIRECTION ( 'NONE',  ( 3.491481338843133355E-15, -1.224646799147353207E-16, 1.000000000000000000 ) ) ;
#128 = DIRECTION ( 'NONE',  ( -3.491481338843133355E-15, 1.224646799147353207E-16, -1.000000000000000000 ) ) ;
#129 = ADVANCED_FACE ( 'NONE', ( #181, #298 ), #155, .T. ) ;
#130 = ORIENTED_EDGE ( 'NONE', *, *, #179, .T. ) ;
#131 = CALENDAR_DATE ( 2021, 2, 12 ) ;
#132 = ORIENTED_EDGE ( 'NONE', *, *, #86, .F. ) ;
#133 = CYLINDRICAL_SURFACE ( 'NONE', #3, 1.514999999999999236 ) ;
#134 = EDGE_CURVE ( 'NONE', #96, #96, #281, .T. ) ;
#135 = FACE_OUTER_BOUND ( 'NONE', #108, .T. ) ;
#136 = FACE_BOUND ( 'NONE', #4, .T. ) ;
#137 = CARTESIAN_POINT ( 'NONE',  ( 2.444036937190193601E-13, 8.998558695971026591E-33, 70.00000000000000000 ) ) ;
#138 = CARTESIAN_POINT ( 'NONE',  ( 8.987808100725203251E-14, -3.152498711492696494E-15, 25.74210550901360861 ) ) ;
#139 = ORIENTED_EDGE ( 'NONE', *, *, #94, .F. ) ;
#140 = DIRECTION ( 'NONE',  ( 0.0000000000000000000, 1.000000000000000000, 0.0000000000000000000 ) ) ;
#141 = LOCAL_TIME ( 8, 17, 56.00000000000000000, #303 ) ;
#142 = CARTESIAN_POINT ( 'NONE',  ( 8.728703347107833388E-14, 1.399999999999996803, 25.00000000000000000 ) ) ;
#143 = EDGE_LOOP ( 'NONE', ( #1 ) ) ;
#144 = APPROVAL_ROLE ( '' ) ;
#145 = EDGE_LOOP ( 'NONE', ( #106 ) ) ;
#146 = PERSON_AND_ORGANIZATION_ROLE ( 'design_owner' ) ;
#147 = ORIENTED_EDGE ( 'NONE', *, *, #229, .F. ) ;
#148 = COORDINATED_UNIVERSAL_TIME_OFFSET ( 1, 0, .AHEAD. ) ;
#149 = ORIENTED_EDGE ( 'NONE', *, *, #134, .T. ) ;
#150 = APPROVAL_STATUS ( 'not_yet_approved' ) ;
#151 = FACE_OUTER_BOUND ( 'NONE', #236, .T. ) ;
#152 = AXIS2_PLACEMENT_3D ( 'NONE', #93, #20, #140 ) ;
#153 = ADVANCED_FACE ( 'NONE', ( #253 ), #91, .F. ) ;
#154 = DIRECTION ( 'NONE',  ( -3.491481338843133355E-15, 1.224646799147353207E-16, -1.000000000000000000 ) ) ;
#155 = CONICAL_SURFACE ( 'NONE', #196, 1.499999999999996003, 0.1745329251994282016 ) ;
#156 = PLANE ( 'NONE',  #264 ) ;
#157 = FACE_OUTER_BOUND ( 'NONE', #122, .T. ) ;
#158 = CC_DESIGN_PERSON_AND_ORGANIZATION_ASSIGNMENT ( #262, #146, ( #276 ) ) ;
#159 = CYLINDRICAL_SURFACE ( 'NONE', #28, 1.499999999999998446 ) ;
#160 = CIRCLE ( 'NONE', #81, 1.500000000000001110 ) ;
#161 = AXIS2_PLACEMENT_3D ( 'NONE', #95, #272, #64 ) ;
#162 = FACE_BOUND ( 'NONE', #76, .T. ) ;
#163 = CARTESIAN_POINT ( 'NONE',  ( 2.444036937190193601E-13, -8.572527594031472993E-15, 70.00000000000000000 ) ) ;
#164 = ORIENTED_EDGE ( 'NONE', *, *, #202, .F. ) ;
#165 = VERTEX_POINT ( 'NONE', #55 ) ;
#166 = CIRCLE ( 'NONE', #200, 1.514999999999999902 ) ;
#167 = LOCAL_TIME ( 8, 17, 56.00000000000000000, #194 ) ;
#168 = CALENDAR_DATE ( 2021, 2, 12 ) ;
#169 = APPROVAL_ROLE ( '' ) ;
#170 = CARTESIAN_POINT ( 'NONE',  ( 3.491481338843133355E-14, -1.224646799147353256E-15, 10.00000000000000000 ) ) ;
#171 = CARTESIAN_POINT ( 'NONE',  ( 0.0000000000000000000, 0.0000000000000000000, 0.0000000000000000000 ) ) ;
#172 = CC_DESIGN_SECURITY_CLASSIFICATION ( #74, ( #203 ) ) ;
#173 = DIRECTION ( 'NONE',  ( 3.491481338843133355E-15, -1.224646799147353207E-16, 1.000000000000000000 ) ) ;
#174 = ORIENTED_EDGE ( 'NONE', *, *, #179, .F. ) ;
#175 = DATE_TIME_ROLE ( 'classification_date' ) ;
#176 = CC_DESIGN_DATE_AND_TIME_ASSIGNMENT ( #266, #175, ( #74 ) ) ;
#177 = DIRECTION ( 'NONE',  ( 0.0000000000000000000, 1.000000000000000000, 0.0000000000000000000 ) ) ;
#178 = AXIS2_PLACEMENT_3D ( 'NONE', #58, #62, #7 ) ;
#179 = EDGE_CURVE ( 'NONE', #71, #71, #201, .T. ) ;
#180 = FACE_OUTER_BOUND ( 'NONE', #263, .T. ) ;
#181 = FACE_BOUND ( 'NONE', #245, .T. ) ;
#182 = EDGE_LOOP ( 'NONE', ( #184 ) ) ;
#183 = UNCERTAINTY_MEASURE_WITH_UNIT (LENGTH_MEASURE( 1.000000000000000082E-05 ), #257, 'distance_accuracy_value', 'NONE');
#184 = ORIENTED_EDGE ( 'NONE', *, *, #94, .T. ) ;
#185 = DIRECTION ( 'NONE',  ( 4.275831445896958607E-31, 1.000000000000000000, 1.224646799147353207E-16 ) ) ;
#186 = CC_DESIGN_PERSON_AND_ORGANIZATION_ASSIGNMENT ( #57, #226, ( #203 ) ) ;
#187 = VERTEX_POINT ( 'NONE', #241 ) ;
#188 =( NAMED_UNIT ( * ) SI_UNIT ( $, .STERADIAN. ) SOLID_ANGLE_UNIT ( ) );
#189 = APPLICATION_CONTEXT ( 'configuration controlled 3d designs of mechanical parts and assemblies' ) ;
#190 = LOCAL_TIME ( 8, 17, 56.00000000000000000, #269 ) ;
#191 = FACE_OUTER_BOUND ( 'NONE', #268, .T. ) ;
#192 = VERTEX_POINT ( 'NONE', #302 ) ;
#193 = CARTESIAN_POINT ( 'NONE',  ( 2.433562493173664138E-13, -8.535788190057053710E-15, 69.70000000000001705 ) ) ;
#194 = COORDINATED_UNIVERSAL_TIME_OFFSET ( 1, 0, .AHEAD. ) ;
#195 = FACE_OUTER_BOUND ( 'NONE', #182, .T. ) ;
#196 = AXIS2_PLACEMENT_3D ( 'NONE', #138, #254, #46 ) ;
#197 = DIRECTION ( 'NONE',  ( -4.275831445896958607E-31, -1.000000000000000000, -1.224646799147353207E-16 ) ) ;
#198 = DIRECTION ( 'NONE',  ( -4.275831445896958607E-31, -1.000000000000000000, -1.224646799147353207E-16 ) ) ;
#199 = SECURITY_CLASSIFICATION_LEVEL ( 'unclassified' ) ;
#200 = AXIS2_PLACEMENT_3D ( 'NONE', #170, #248, #13 ) ;
#201 = CIRCLE ( 'NONE', #63, 1.514999999999998570 ) ;
#202 = EDGE_CURVE ( 'NONE', #187, #187, #282, .T. ) ;
#203 = PRODUCT_DEFINITION_FORMATION_WITH_SPECIFIED_SOURCE ( 'ANY', '', #276, .NOT_KNOWN. ) ;
#204 = FACE_OUTER_BOUND ( 'NONE', #258, .T. ) ;
#205 = DIRECTION ( 'NONE',  ( -3.491481338843133355E-15, 1.224646799147353207E-16, -1.000000000000000000 ) ) ;
#206 = CONICAL_SURFACE ( 'NONE', #214, 1.399999999999998357, 0.5235987755982910441 ) ;
#207 = AXIS2_PLACEMENT_3D ( 'NONE', #30, #79, #72 ) ;
#208 = ADVANCED_FACE ( 'NONE', ( #252 ), #156, .T. ) ;
#209 = DIRECTION ( 'NONE',  ( -3.491481338843133355E-15, 1.224646799147353207E-16, -1.000000000000000000 ) ) ;
#210 = EDGE_LOOP ( 'NONE', ( #32 ) ) ;
#211 = FACE_OUTER_BOUND ( 'NONE', #261, .T. ) ;
#212 = CARTESIAN_POINT ( 'NONE',  ( 2.433562493173664138E-13, 1.499999999999992673, 69.70000000000001705 ) ) ;
#213 = ADVANCED_FACE ( 'NONE', ( #204, #211 ), #42, .F. ) ;
#214 = AXIS2_PLACEMENT_3D ( 'NONE', #221, #60, #177 ) ;
#215 = AXIS2_PLACEMENT_3D ( 'NONE', #137, #227, #88 ) ;
#216 = APPROVAL_STATUS ( 'not_yet_approved' ) ;
#217 = DATE_TIME_ROLE ( 'creation_date' ) ;
#218 = DIRECTION ( 'NONE',  ( 4.275831445896958607E-31, 1.000000000000000000, 1.224646799147353207E-16 ) ) ;
#219 = PERSON_AND_ORGANIZATION_ROLE ( 'creator' ) ;
#220 = FACE_OUTER_BOUND ( 'NONE', #26, .T. ) ;
#221 = CARTESIAN_POINT ( 'NONE',  ( 3.561026704177517217E-14, -1.249040029638026907E-15, 10.19918584287042762 ) ) ;
#222 = CC_DESIGN_DATE_AND_TIME_ASSIGNMENT ( #125, #217, ( #265 ) ) ;
#223 = ORIENTED_EDGE ( 'NONE', *, *, #285, .F. ) ;
#224 = AXIS2_PLACEMENT_3D ( 'NONE', #116, #22, #121 ) ;
#225 = EDGE_LOOP ( 'NONE', ( #54 ) ) ;
#226 = PERSON_AND_ORGANIZATION_ROLE ( 'design_supplier' ) ;
#227 = DIRECTION ( 'NONE',  ( -3.491481338843133355E-15, 1.224646799147353207E-16, -1.000000000000000000 ) ) ;
#228 = CARTESIAN_POINT ( 'NONE',  ( 3.561026704177517217E-14, -1.249040029638026907E-15, 10.19918584287042762 ) ) ;
#229 = EDGE_CURVE ( 'NONE', #165, #165, #39, .T. ) ;
#230 = CARTESIAN_POINT ( 'NONE',  ( 8.728703347107827472E-16, -3.061616997868381169E-17, 0.2499999999999998335 ) ) ;
#231 =( GEOMETRIC_REPRESENTATION_CONTEXT ( 3 ) GLOBAL_UNCERTAINTY_ASSIGNED_CONTEXT ( ( #183 ) ) GLOBAL_UNIT_ASSIGNED_CONTEXT ( ( #257, #77, #188 ) ) REPRESENTATION_CONTEXT ( 'NONE', 'WORKASPACE' ) );
#232 = DIRECTION ( 'NONE',  ( 0.0000000000000000000, 1.000000000000000000, 0.0000000000000000000 ) ) ;
#233 = ORIENTED_EDGE ( 'NONE', *, *, #6, .F. ) ;
#234 = ADVANCED_FACE ( 'NONE', ( #136, #135 ), #47, .T. ) ;
#235 = CARTESIAN_POINT ( 'NONE',  ( 0.0000000000000000000, 0.0000000000000000000, 0.0000000000000000000 ) ) ;
#236 = EDGE_LOOP ( 'NONE', ( #267 ) ) ;
#237 = MECHANICAL_CONTEXT ( 'NONE', #189, 'mechanical' ) ;
#238 = CIRCLE ( 'NONE', #112, 1.200000000000001510 ) ;
#239 = VERTEX_POINT ( 'NONE', #142 ) ;
#240 = DATE_AND_TIME ( #280, #167 ) ;
#241 = CARTESIAN_POINT ( 'NONE',  ( 8.987808100725203251E-14, 1.499999999999992673, 25.74210550901360861 ) ) ;
#242 = EDGE_LOOP ( 'NONE', ( #104 ) ) ;
#243 = LOCAL_TIME ( 8, 17, 56.00000000000000000, #27 ) ;
#244 = PERSON_AND_ORGANIZATION ( #80, #296 ) ;
#245 = EDGE_LOOP ( 'NONE', ( #250 ) ) ;
#246 = APPROVAL_DATE_TIME ( #10, #83 ) ;
#247 = CC_DESIGN_PERSON_AND_ORGANIZATION_ASSIGNMENT ( #2, #101, ( #203 ) ) ;
#248 = DIRECTION ( 'NONE',  ( -3.491481338843133355E-15, 1.224646799147353207E-16, -1.000000000000000000 ) ) ;
#249 = FACE_OUTER_BOUND ( 'NONE', #145, .T. ) ;
#250 = ORIENTED_EDGE ( 'NONE', *, *, #134, .F. ) ;
#251 = AXIS2_PLACEMENT_3D ( 'NONE', #45, #209, #297 ) ;
#252 = FACE_OUTER_BOUND ( 'NONE', #38, .T. ) ;
#253 = FACE_OUTER_BOUND ( 'NONE', #279, .T. ) ;
#254 = DIRECTION ( 'NONE',  ( 3.491481338843133355E-15, -1.224646799147353207E-16, 1.000000000000000000 ) ) ;
#255 = CARTESIAN_POINT ( 'NONE',  ( 1.135641495829896858E-30, 1.265000000000001457, 3.252606517456513302E-16 ) ) ;
#256 = DESIGN_CONTEXT ( 'detailed design', #97, 'design' ) ;
#257 =( LENGTH_UNIT ( ) NAMED_UNIT ( * ) SI_UNIT ( .MILLI., .METRE. ) );
#258 = EDGE_LOOP ( 'NONE', ( #139 ) ) ;
#259 = CARTESIAN_POINT ( 'NONE',  ( 3.491481338843133355E-14, 1.514999999999998570, 10.00000000000000000 ) ) ;
#260 = APPROVAL_DATE_TIME ( #126, #49 ) ;
#261 = EDGE_LOOP ( 'NONE', ( #149 ) ) ;
#262 = PERSON_AND_ORGANIZATION ( #80, #296 ) ;
#263 = EDGE_LOOP ( 'NONE', ( #275 ) ) ;
#264 = AXIS2_PLACEMENT_3D ( 'NONE', #25, #120, #118 ) ;
#265 = PRODUCT_DEFINITION ( 'UNKNOWN', '', #203, #256 ) ;
#266 = DATE_AND_TIME ( #131, #190 ) ;
#267 = ORIENTED_EDGE ( 'NONE', *, *, #6, .T. ) ;
#268 = EDGE_LOOP ( 'NONE', ( #99 ) ) ;
#269 = COORDINATED_UNIVERSAL_TIME_OFFSET ( 1, 0, .AHEAD. ) ;
#270 = PERSON_AND_ORGANIZATION_ROLE ( 'classification_officer' ) ;
#271 = AXIS2_PLACEMENT_3D ( 'NONE', #115, #278, #232 ) ;
#272 = DIRECTION ( 'NONE',  ( -3.491481338843133355E-15, 1.224646799147353207E-16, -1.000000000000000000 ) ) ;
#273 = DIRECTION ( 'NONE',  ( 0.0000000000000000000, 1.000000000000000000, 0.0000000000000000000 ) ) ;
#274 = ADVANCED_FACE ( 'NONE', ( #277, #162 ), #89, .T. ) ;
#275 = ORIENTED_EDGE ( 'NONE', *, *, #19, .T. ) ;
#276 = PRODUCT ( '321529', '321529', '', ( #237 ) ) ;
#277 = FACE_OUTER_BOUND ( 'NONE', #210, .T. ) ;
#278 = DIRECTION ( 'NONE',  ( -3.491481338843133355E-15, 1.224646799147353207E-16, -1.000000000000000000 ) ) ;
#279 = EDGE_LOOP ( 'NONE', ( #132 ) ) ;
#280 = CALENDAR_DATE ( 2021, 2, 12 ) ;
#281 = CIRCLE ( 'NONE', #271, 1.430384493975580318 ) ;
#282 = CIRCLE ( 'NONE', #161, 1.499999999999996003 ) ;
#283 = CARTESIAN_POINT ( 'NONE',  ( 2.444036937190193601E-13, -8.572527594031472993E-15, 70.00000000000000000 ) ) ;
#284 = ADVANCED_BREP_SHAPE_REPRESENTATION ( '321529', ( #17, #15, #207 ), #231 ) ;
#285 = EDGE_CURVE ( 'NONE', #5, #5, #67, .T. ) ;
#286 = CARTESIAN_POINT ( 'NONE',  ( 3.491481338843133355E-14, 1.136068035366355031E-32, 10.00000000000000000 ) ) ;
#287 = CYLINDRICAL_SURFACE ( 'NONE', #123, 1.399999999999998801 ) ;
#288 = AXIS2_PLACEMENT_3D ( 'NONE', #36, #127, #197 ) ;
#289 = APPROVAL_PERSON_ORGANIZATION ( #51, #293, #144 ) ;
#290 = DIRECTION ( 'NONE',  ( 0.0000000000000000000, 1.000000000000000000, 0.0000000000000000000 ) ) ;
#291 = DIRECTION ( 'NONE',  ( 4.275831445896958607E-31, 1.000000000000000000, 1.224646799147353207E-16 ) ) ;
#292 = CLOSED_SHELL ( 'NONE', ( #66, #14, #40, #213, #129, #119, #274, #153 ) ) ;
#293 = APPROVAL ( #8, 'UNSPECIFIED' ) ;
#294 = DIRECTION ( 'NONE',  ( -3.491481338843133355E-15, 1.224646799147353207E-16, -1.000000000000000000 ) ) ;
#295 = DIRECTION ( 'NONE',  ( 0.0000000000000000000, 1.000000000000000000, 0.0000000000000000000 ) ) ;
#296 = ORGANIZATION ( 'UNSPECIFIED', 'UNSPECIFIED', '' ) ;
#297 = DIRECTION ( 'NONE',  ( 0.0000000000000000000, 1.000000000000000000, 0.0000000000000000000 ) ) ;
#298 = FACE_OUTER_BOUND ( 'NONE', #242, .T. ) ;
#299 = VERTEX_POINT ( 'NONE', #43 ) ;
#300 = CLOSED_SHELL ( 'NONE', ( #69, #234, #90, #208 ) ) ;
#301 = AXIS2_PLACEMENT_3D ( 'NONE', #163, #205, #295 ) ;
#302 = CARTESIAN_POINT ( 'NONE',  ( 2.444036937190193601E-13, 1.199999999999992628, 70.00000000000000000 ) ) ;
#303 = COORDINATED_UNIVERSAL_TIME_OFFSET ( 1, 0, .AHEAD. ) ;
ENDSEC;
END-ISO-10303-21;
