ISO-10303-21;
HEADER;
FILE_DESCRIPTION (( 'STEP AP203' ),
    '1' );
FILE_NAME ('321528.step',
    '2021-12-02T07:17:55',
    ( '' ),
    ( '' ),
    'SwSTEP 2.0',
    'SolidWorks 2019',
    '' );
FILE_SCHEMA (( 'CONFIG_CONTROL_DESIGN' ));
ENDSEC;

DATA;
#1 = CARTESIAN_POINT ( 'NONE',  ( 4.877169494617558298E-31, -1.710680777248987466E-32, 1.396876861508175344E-16 ) ) ;
#2 = EDGE_CURVE ( 'NONE', #105, #105, #227, .T. ) ;
#3 = DIRECTION ( 'NONE',  ( 4.275831445896958607E-31, 1.000000000000000000, 1.224646799147353207E-16 ) ) ;
#4 = CONICAL_SURFACE ( 'NONE', #127, 1.399999999999998357, 0.5235987755982933756 ) ;
#5 = FACE_OUTER_BOUND ( 'NONE', #279, .T. ) ;
#6 = CARTESIAN_POINT ( 'NONE',  ( 9.754338989235116596E-31, -3.421361554497974933E-32, 2.793753723016350688E-16 ) ) ;
#7 = CARTESIAN_POINT ( 'NONE',  ( 0.0000000000000000000, 0.0000000000000000000, 0.0000000000000000000 ) ) ;
#8 = ORGANIZATION ( 'UNSPECIFIED', 'UNSPECIFIED', '' ) ;
#9 = CARTESIAN_POINT ( 'NONE',  ( 3.491481338843133355E-14, 1.509999999999998677, 10.00000000000000000 ) ) ;
#10 = CC_DESIGN_PERSON_AND_ORGANIZATION_ASSIGNMENT ( #141, #118, ( #196 ) ) ;
#11 =( NAMED_UNIT ( * ) SI_UNIT ( $, .STERADIAN. ) SOLID_ANGLE_UNIT ( ) );
#12 = APPLICATION_CONTEXT ( 'configuration controlled 3d designs of mechanical parts and assemblies' ) ;
#13 = PRODUCT_DEFINITION_SHAPE ( 'NONE', 'NONE',  #221 ) ;
#14 = EDGE_LOOP ( 'NONE', ( #51 ) ) ;
#15 = AXIS2_PLACEMENT_3D ( 'NONE', #286, #79, #55 ) ;
#16 = ADVANCED_FACE ( 'NONE', ( #282 ), #149, .T. ) ;
#17 = PERSON_AND_ORGANIZATION ( #121, #8 ) ;
#18 = EDGE_LOOP ( 'NONE', ( #272 ) ) ;
#19 = CC_DESIGN_APPROVAL ( #82, ( #221 ) ) ;
#20 = ORIENTED_EDGE ( 'NONE', *, *, #115, .T. ) ;
#21 = PERSON_AND_ORGANIZATION ( #121, #8 ) ;
#22 = CARTESIAN_POINT ( 'NONE',  ( 8.728703347107827472E-16, -3.061616997868381169E-17, 0.2499999999999998335 ) ) ;
#23 = PERSON_AND_ORGANIZATION_ROLE ( 'creator' ) ;
#24 = PLANE ( 'NONE',  #116 ) ;
#25 = CONICAL_SURFACE ( 'NONE', #76, 1.499999999999996003, 0.1745329251994282016 ) ;
#26 = DIRECTION ( 'NONE',  ( -3.491481338843133355E-15, 1.224646799147353207E-16, -1.000000000000000000 ) ) ;
#27 = EDGE_LOOP ( 'NONE', ( #49 ) ) ;
#28 = DIRECTION ( 'NONE',  ( 3.826350882888551405E-31, 1.000000000000000000, 1.077022025647853030E-16 ) ) ;
#29 = CIRCLE ( 'NONE', #91, 1.510000000000000009 ) ;
#30 = CARTESIAN_POINT ( 'NONE',  ( 0.0000000000000000000, 0.0000000000000000000, 0.0000000000000000000 ) ) ;
#31 = PRODUCT_RELATED_PRODUCT_CATEGORY ( 'detail', '', ( #114 ) ) ;
#32 = CYLINDRICAL_SURFACE ( 'NONE', #289, 1.509999999999999343 ) ;
#33 = FACE_OUTER_BOUND ( 'NONE', #263, .T. ) ;
#34 = CARTESIAN_POINT ( 'NONE',  ( 2.444036937190193601E-13, 1.199999999999992628, 70.00000000000000000 ) ) ;
#35 = CC_DESIGN_PERSON_AND_ORGANIZATION_ASSIGNMENT ( #275, #68, ( #292 ) ) ;
#36 = AXIS2_PLACEMENT_3D ( 'NONE', #283, #77, #28 ) ;
#37 = CARTESIAN_POINT ( 'NONE',  ( 3.558002992641239713E-14, 1.399999999999997025, 10.19052558883258186 ) ) ;
#38 = FACE_BOUND ( 'NONE', #95, .T. ) ;
#39 = ORIENTED_EDGE ( 'NONE', *, *, #269, .T. ) ;
#40 = TOROIDAL_SURFACE ( 'NONE', #278, 3.399999999999999911, 2.000000000000000000 ) ;
#41 = ADVANCED_FACE ( 'NONE', ( #239, #126 ), #123, .T. ) ;
#42 = EDGE_LOOP ( 'NONE', ( #303 ) ) ;
#43 = CALENDAR_DATE ( 2021, 2, 12 ) ;
#44 = LOCAL_TIME ( 8, 17, 55.00000000000000000, #207 ) ;
#45 = COORDINATED_UNIVERSAL_TIME_OFFSET ( 1, 0, .AHEAD. ) ;
#46 = ORIENTED_EDGE ( 'NONE', *, *, #85, .T. ) ;
#47 = FACE_OUTER_BOUND ( 'NONE', #195, .T. ) ;
#48 = CC_DESIGN_PERSON_AND_ORGANIZATION_ASSIGNMENT ( #291, #88, ( #114 ) ) ;
#49 = ORIENTED_EDGE ( 'NONE', *, *, #131, .T. ) ;
#50 = AXIS2_PLACEMENT_3D ( 'NONE', #7, #57, #154 ) ;
#51 = ORIENTED_EDGE ( 'NONE', *, *, #74, .T. ) ;
#52 = ORIENTED_EDGE ( 'NONE', *, *, #131, .F. ) ;
#53 = FACE_OUTER_BOUND ( 'NONE', #27, .T. ) ;
#54 = AXIS2_PLACEMENT_3D ( 'NONE', #98, #232, #144 ) ;
#55 = DIRECTION ( 'NONE',  ( 0.0000000000000000000, 1.000000000000000000, 0.0000000000000000000 ) ) ;
#56 = CARTESIAN_POINT ( 'NONE',  ( 8.987808100725203251E-14, -3.152498711492696494E-15, 25.74210550901360861 ) ) ;
#57 = DIRECTION ( 'NONE',  ( -3.491481338843133355E-15, 1.224646799147353207E-16, -1.000000000000000000 ) ) ;
#58 = VERTEX_POINT ( 'NONE', #110 ) ;
#59 = APPROVAL ( #256, 'UNSPECIFIED' ) ;
#60 = VERTEX_POINT ( 'NONE', #37 ) ;
#61 = ADVANCED_FACE ( 'NONE', ( #53 ), #71, .F. ) ;
#62 = AXIS2_PLACEMENT_3D ( 'NONE', #178, #266, #249 ) ;
#63 = CARTESIAN_POINT ( 'NONE',  ( 2.433562493173664138E-13, 1.499999999999992673, 69.70000000000001705 ) ) ;
#64 = VERTEX_POINT ( 'NONE', #63 ) ;
#65 = ADVANCED_BREP_SHAPE_REPRESENTATION ( '321528', ( #201, #293, #145 ), #297 ) ;
#66 = APPROVAL ( #185, 'UNSPECIFIED' ) ;
#67 = EDGE_LOOP ( 'NONE', ( #20 ) ) ;
#68 = PERSON_AND_ORGANIZATION_ROLE ( 'classification_officer' ) ;
#69 = DATE_AND_TIME ( #139, #44 ) ;
#70 = AXIS2_PLACEMENT_3D ( 'NONE', #30, #241, #173 ) ;
#71 = PLANE ( 'NONE',  #54 ) ;
#72 = APPROVAL_ROLE ( '' ) ;
#73 = FACE_OUTER_BOUND ( 'NONE', #299, .T. ) ;
#74 = EDGE_CURVE ( 'NONE', #83, #83, #134, .T. ) ;
#75 = CARTESIAN_POINT ( 'NONE',  ( 3.491481338843133355E-14, 1.132318635909700496E-32, 10.00000000000000000 ) ) ;
#76 = AXIS2_PLACEMENT_3D ( 'NONE', #56, #270, #246 ) ;
#77 = DIRECTION ( 'NONE',  ( -3.491481338843133355E-15, 1.224646799147353207E-16, -1.000000000000000000 ) ) ;
#78 = DIRECTION ( 'NONE',  ( 0.0000000000000000000, 1.000000000000000000, 0.0000000000000000000 ) ) ;
#79 = DIRECTION ( 'NONE',  ( -3.491481338843133355E-15, 1.224646799147353207E-16, -1.000000000000000000 ) ) ;
#80 = CARTESIAN_POINT ( 'NONE',  ( 1.514188661106529085E-30, 1.260000000000001563, 4.336808689942017736E-16 ) ) ;
#81 = FACE_OUTER_BOUND ( 'NONE', #161, .T. ) ;
#82 = APPROVAL ( #102, 'UNSPECIFIED' ) ;
#83 = VERTEX_POINT ( 'NONE', #174 ) ;
#84 = CARTESIAN_POINT ( 'NONE',  ( 2.444036937190193601E-13, -8.572527594031472993E-15, 70.00000000000000000 ) ) ;
#85 = EDGE_CURVE ( 'NONE', #64, #64, #184, .T. ) ;
#86 = DIRECTION ( 'NONE',  ( 0.0000000000000000000, 0.0000000000000000000, 1.000000000000000000 ) ) ;
#87 = CC_DESIGN_APPROVAL ( #59, ( #196 ) ) ;
#88 = PERSON_AND_ORGANIZATION_ROLE ( 'design_owner' ) ;
#89 = UNCERTAINTY_MEASURE_WITH_UNIT (LENGTH_MEASURE( 1.000000000000000082E-05 ), #204, 'distance_accuracy_value', 'NONE');
#90 = ORIENTED_EDGE ( 'NONE', *, *, #115, .F. ) ;
#91 = AXIS2_PLACEMENT_3D ( 'NONE', #300, #235, #192 ) ;
#92 = APPROVAL_DATE_TIME ( #69, #59 ) ;
#93 = CALENDAR_DATE ( 2021, 2, 12 ) ;
#94 = EDGE_LOOP ( 'NONE', ( #296 ) ) ;
#95 = EDGE_LOOP ( 'NONE', ( #197 ) ) ;
#96 = AXIS2_PLACEMENT_3D ( 'NONE', #75, #124, #261 ) ;
#97 = CARTESIAN_POINT ( 'NONE',  ( 8.728703347107833388E-14, -3.035766082959412415E-15, 25.00000000000000000 ) ) ;
#98 = CARTESIAN_POINT ( 'NONE',  ( 3.491481338843133355E-14, 1.132318635909700496E-32, 10.00000000000000000 ) ) ;
#99 = AXIS2_PLACEMENT_3D ( 'NONE', #84, #271, #226 ) ;
#100 = DIRECTION ( 'NONE',  ( 3.491481338843133355E-15, -1.224646799147353207E-16, 1.000000000000000000 ) ) ;
#101 = FACE_OUTER_BOUND ( 'NONE', #142, .T. ) ;
#102 = APPROVAL_STATUS ( 'not_yet_approved' ) ;
#103 = CC_DESIGN_PERSON_AND_ORGANIZATION_ASSIGNMENT ( #295, #210, ( #196 ) ) ;
#104 = DIRECTION ( 'NONE',  ( 4.275831445896959482E-31, 1.000000000000000000, 1.224646799147353207E-16 ) ) ;
#105 = VERTEX_POINT ( 'NONE', #242 ) ;
#106 = AXIS2_PLACEMENT_3D ( 'NONE', #212, #26, #78 ) ;
#107 = EDGE_CURVE ( 'NONE', #60, #60, #248, .T. ) ;
#108 = FACE_OUTER_BOUND ( 'NONE', #42, .T. ) ;
#109 = LOCAL_TIME ( 8, 17, 55.00000000000000000, #45 ) ;
#110 = CARTESIAN_POINT ( 'NONE',  ( 3.491481338843133355E-14, 1.509999999999998677, 10.00000000000000000 ) ) ;
#111 = DIRECTION ( 'NONE',  ( 4.275831445896958607E-31, 1.000000000000000000, 1.224646799147353207E-16 ) ) ;
#112 = CC_DESIGN_DATE_AND_TIME_ASSIGNMENT ( #257, #254, ( #292 ) ) ;
#113 = EDGE_LOOP ( 'NONE', ( #159 ) ) ;
#114 = PRODUCT ( '321528', '321528', '', ( #205 ) ) ;
#115 = EDGE_CURVE ( 'NONE', #177, #177, #217, .T. ) ;
#116 = AXIS2_PLACEMENT_3D ( 'NONE', #1, #100, #122 ) ;
#117 = CC_DESIGN_APPROVAL ( #66, ( #292 ) ) ;
#118 = PERSON_AND_ORGANIZATION_ROLE ( 'creator' ) ;
#119 = APPROVAL_ROLE ( '' ) ;
#120 = DIRECTION ( 'NONE',  ( -3.491481338843133355E-15, 1.224646799147353207E-16, -1.000000000000000000 ) ) ;
#121 = PERSON ( 'UNSPECIFIED', 'UNSPECIFIED', 'UNSPECIFIED', ('UNSPECIFIED'), ('UNSPECIFIED'), ('UNSPECIFIED') ) ;
#122 = DIRECTION ( 'NONE',  ( -4.275831445896958607E-31, -1.000000000000000000, -1.224646799147353207E-16 ) ) ;
#123 = CONICAL_SURFACE ( 'NONE', #252, 1.509999999999998677, 0.7853981633974435050 ) ;
#124 = DIRECTION ( 'NONE',  ( 3.491481338843133355E-15, -1.224646799147353207E-16, 1.000000000000000000 ) ) ;
#125 = DIRECTION ( 'NONE',  ( 0.0000000000000000000, 1.000000000000000000, 0.0000000000000000000 ) ) ;
#126 = FACE_OUTER_BOUND ( 'NONE', #171, .T. ) ;
#127 = AXIS2_PLACEMENT_3D ( 'NONE', #218, #200, #198 ) ;
#128 = DIRECTION ( 'NONE',  ( -3.491481338843133355E-15, 1.224646799147353207E-16, -1.000000000000000000 ) ) ;
#129 = CARTESIAN_POINT ( 'NONE',  ( 3.491481338843133355E-14, -1.224646799147353256E-15, 10.00000000000000000 ) ) ;
#130 = CARTESIAN_POINT ( 'NONE',  ( 8.728703347107833388E-14, 1.399999999999996803, 25.00000000000000000 ) ) ;
#131 = EDGE_CURVE ( 'NONE', #58, #58, #29, .T. ) ;
#132 = FACE_BOUND ( 'NONE', #172, .T. ) ;
#133 = VERTEX_POINT ( 'NONE', #130 ) ;
#134 = CIRCLE ( 'NONE', #301, 1.430384493975580318 ) ;
#135 = ORIENTED_EDGE ( 'NONE', *, *, #287, .F. ) ;
#136 = ADVANCED_FACE ( 'NONE', ( #47, #143 ), #40, .F. ) ;
#137 = COORDINATED_UNIVERSAL_TIME_OFFSET ( 1, 0, .AHEAD. ) ;
#138 = EDGE_LOOP ( 'NONE', ( #46 ) ) ;
#139 = CALENDAR_DATE ( 2021, 2, 12 ) ;
#140 = APPROVAL_PERSON_ORGANIZATION ( #17, #59, #72 ) ;
#141 = PERSON_AND_ORGANIZATION ( #121, #8 ) ;
#142 = EDGE_LOOP ( 'NONE', ( #251 ) ) ;
#143 = FACE_OUTER_BOUND ( 'NONE', #14, .T. ) ;
#144 = DIRECTION ( 'NONE',  ( -4.275831445896958607E-31, -1.000000000000000000, -1.224646799147353207E-16 ) ) ;
#145 = AXIS2_PLACEMENT_3D ( 'NONE', #153, #86, #179 ) ;
#146 = ADVANCED_FACE ( 'NONE', ( #215 ), #24, .F. ) ;
#147 = DIRECTION ( 'NONE',  ( -3.826350882888551405E-31, -1.000000000000000000, -1.077022025647853030E-16 ) ) ;
#148 = ADVANCED_FACE ( 'NONE', ( #73, #167 ), #260, .T. ) ;
#149 = PLANE ( 'NONE',  #96 ) ;
#150 = DIRECTION ( 'NONE',  ( -3.491481338843133355E-15, 1.224646799147353207E-16, -1.000000000000000000 ) ) ;
#151 = CIRCLE ( 'NONE', #157, 1.260000000000001563 ) ;
#152 = FACE_OUTER_BOUND ( 'NONE', #193, .T. ) ;
#153 = CARTESIAN_POINT ( 'NONE',  ( 0.0000000000000000000, 0.0000000000000000000, 0.0000000000000000000 ) ) ;
#154 = DIRECTION ( 'NONE',  ( 4.275831445896958607E-31, 1.000000000000000000, 1.224646799147353207E-16 ) ) ;
#155 = VERTEX_POINT ( 'NONE', #34 ) ;
#156 = FACE_OUTER_BOUND ( 'NONE', #67, .T. ) ;
#157 = AXIS2_PLACEMENT_3D ( 'NONE', #6, #150, #104 ) ;
#158 = VERTEX_POINT ( 'NONE', #80 ) ;
#159 = ORIENTED_EDGE ( 'NONE', *, *, #160, .T. ) ;
#160 = EDGE_CURVE ( 'NONE', #158, #158, #151, .T. ) ;
#161 = EDGE_LOOP ( 'NONE', ( #52 ) ) ;
#162 = DATE_AND_TIME ( #43, #109 ) ;
#163 = SECURITY_CLASSIFICATION_LEVEL ( 'unclassified' ) ;
#164 = LOCAL_TIME ( 8, 17, 55.00000000000000000, #165 ) ;
#165 = COORDINATED_UNIVERSAL_TIME_OFFSET ( 1, 0, .AHEAD. ) ;
#166 = CARTESIAN_POINT ( 'NONE',  ( 8.849961221477468513E-14, -3.104148534859896361E-15, 25.34729635533384240 ) ) ;
#167 = FACE_OUTER_BOUND ( 'NONE', #138, .T. ) ;
#168 = CC_DESIGN_PERSON_AND_ORGANIZATION_ASSIGNMENT ( #21, #23, ( #221 ) ) ;
#169 = CLOSED_SHELL ( 'NONE', ( #146, #41, #224, #16 ) ) ;
#170 = ADVANCED_FACE ( 'NONE', ( #265, #108 ), #203, .T. ) ;
#171 = EDGE_LOOP ( 'NONE', ( #206 ) ) ;
#172 = EDGE_LOOP ( 'NONE', ( #39 ) ) ;
#173 = DIRECTION ( 'NONE',  ( 4.275831445896958607E-31, 1.000000000000000000, 1.224646799147353207E-16 ) ) ;
#174 = CARTESIAN_POINT ( 'NONE',  ( 8.849961221477468513E-14, 1.430384493975577209, 25.34729635533384240 ) ) ;
#175 = AXIS2_PLACEMENT_3D ( 'NONE', #238, #214, #125 ) ;
#176 = DIRECTION ( 'NONE',  ( -3.491481338843133355E-15, 1.224646799147353207E-16, -1.000000000000000000 ) ) ;
#177 = VERTEX_POINT ( 'NONE', #268 ) ;
#178 = CARTESIAN_POINT ( 'NONE',  ( 8.728703347107833388E-14, -3.061616997868383043E-15, 25.00000000000000000 ) ) ;
#179 = DIRECTION ( 'NONE',  ( 1.000000000000000000, 0.0000000000000000000, 0.0000000000000000000 ) ) ;
#180 = APPROVAL_PERSON_ORGANIZATION ( #250, #82, #199 ) ;
#181 = CONICAL_SURFACE ( 'NONE', #15, 1.200000000000001510, 0.7853981633974566057 ) ;
#182 = APPLICATION_PROTOCOL_DEFINITION ( 'international standard', 'config_control_design', 1994, #12 ) ;
#183 = EDGE_CURVE ( 'NONE', #244, #244, #213, .T. ) ;
#184 = CIRCLE ( 'NONE', #284, 1.500000000000001110 ) ;
#185 = APPROVAL_STATUS ( 'not_yet_approved' ) ;
#186 = EDGE_LOOP ( 'NONE', ( #253 ) ) ;
#187 = APPROVAL_DATE_TIME ( #233, #82 ) ;
#188 = CC_DESIGN_DATE_AND_TIME_ASSIGNMENT ( #276, #189, ( #221 ) ) ;
#189 = DATE_TIME_ROLE ( 'creation_date' ) ;
#190 = EDGE_LOOP ( 'NONE', ( #258 ) ) ;
#191 = CALENDAR_DATE ( 2021, 2, 12 ) ;
#192 = DIRECTION ( 'NONE',  ( 0.0000000000000000000, 1.000000000000000000, 0.0000000000000000000 ) ) ;
#193 = EDGE_LOOP ( 'NONE', ( #264 ) ) ;
#194 = ADVANCED_FACE ( 'NONE', ( #81, #243 ), #4, .T. ) ;
#195 = EDGE_LOOP ( 'NONE', ( #135 ) ) ;
#196 = PRODUCT_DEFINITION_FORMATION_WITH_SPECIFIED_SOURCE ( 'ANY', '', #114, .NOT_KNOWN. ) ;
#197 = ORIENTED_EDGE ( 'NONE', *, *, #74, .F. ) ;
#198 = DIRECTION ( 'NONE',  ( 0.0000000000000000000, 1.000000000000000000, 0.0000000000000000000 ) ) ;
#199 = APPROVAL_ROLE ( '' ) ;
#200 = DIRECTION ( 'NONE',  ( -3.491481338843133355E-15, 1.224646799147353207E-16, -1.000000000000000000 ) ) ;
#201 = MANIFOLD_SOLID_BREP ( 'Corps-Déplacer/Copier1[1]', #237 ) ;
#202 = AXIS2_PLACEMENT_3D ( 'NONE', #222, #290, #111 ) ;
#203 = CYLINDRICAL_SURFACE ( 'NONE', #70, 1.399999999999998801 ) ;
#204 =( LENGTH_UNIT ( ) NAMED_UNIT ( * ) SI_UNIT ( .MILLI., .METRE. ) );
#205 = MECHANICAL_CONTEXT ( 'NONE', #247, 'mechanical' ) ;
#206 = ORIENTED_EDGE ( 'NONE', *, *, #2, .T. ) ;
#207 = COORDINATED_UNIVERSAL_TIME_OFFSET ( 1, 0, .AHEAD. ) ;
#208 = CIRCLE ( 'NONE', #99, 1.200000000000001510 ) ;
#209 = APPROVAL_PERSON_ORGANIZATION ( #298, #66, #119 ) ;
#210 = PERSON_AND_ORGANIZATION_ROLE ( 'design_supplier' ) ;
#211 = APPROVAL_DATE_TIME ( #162, #66 ) ;
#212 = CARTESIAN_POINT ( 'NONE',  ( 8.987808100725203251E-14, -3.152498711492696494E-15, 25.74210550901360861 ) ) ;
#213 = CIRCLE ( 'NONE', #231, 1.510000000000000009 ) ;
#214 = DIRECTION ( 'NONE',  ( -3.491481338843133355E-15, 1.224646799147353207E-16, -1.000000000000000000 ) ) ;
#215 = FACE_OUTER_BOUND ( 'NONE', #113, .T. ) ;
#216 = DIRECTION ( 'NONE',  ( -3.491481338843133355E-15, 1.224646799147353207E-16, -1.000000000000000000 ) ) ;
#217 = CIRCLE ( 'NONE', #106, 1.499999999999996003 ) ;
#218 = CARTESIAN_POINT ( 'NONE',  ( 3.558002992641239713E-14, -1.247979454399301863E-15, 10.19052558883258186 ) ) ;
#219 = PLANE ( 'NONE',  #202 ) ;
#220 = APPLICATION_PROTOCOL_DEFINITION ( 'international standard', 'config_control_design', 1994, #247 ) ;
#221 = PRODUCT_DEFINITION ( 'UNKNOWN', '', #196, #228 ) ;
#222 = CARTESIAN_POINT ( 'NONE',  ( 2.444036937190193601E-13, 8.998558695971026591E-33, 70.00000000000000000 ) ) ;
#223 = LOCAL_TIME ( 8, 17, 55.00000000000000000, #137 ) ;
#224 = ADVANCED_FACE ( 'NONE', ( #5, #101 ), #32, .T. ) ;
#225 =( NAMED_UNIT ( * ) PLANE_ANGLE_UNIT ( ) SI_UNIT ( $, .RADIAN. ) );
#226 = DIRECTION ( 'NONE',  ( 0.0000000000000000000, 1.000000000000000000, 0.0000000000000000000 ) ) ;
#227 = CIRCLE ( 'NONE', #36, 1.509999999999998677 ) ;
#228 = DESIGN_CONTEXT ( 'detailed design', #12, 'design' ) ;
#229 = SHAPE_DEFINITION_REPRESENTATION ( #13, #65 ) ;
#230 = ORIENTED_EDGE ( 'NONE', *, *, #85, .F. ) ;
#231 = AXIS2_PLACEMENT_3D ( 'NONE', #129, #128, #240 ) ;
#232 = DIRECTION ( 'NONE',  ( 3.491481338843133355E-15, -1.224646799147353207E-16, 1.000000000000000000 ) ) ;
#233 = DATE_AND_TIME ( #280, #223 ) ;
#234 = DIRECTION ( 'NONE',  ( 0.0000000000000000000, 1.000000000000000000, 0.0000000000000000000 ) ) ;
#235 = DIRECTION ( 'NONE',  ( -3.491481338843133355E-15, 1.224646799147353207E-16, -1.000000000000000000 ) ) ;
#236 = CIRCLE ( 'NONE', #62, 1.399999999999999689 ) ;
#237 = CLOSED_SHELL ( 'NONE', ( #61, #194, #170, #136, #294, #148, #245, #255 ) ) ;
#238 = CARTESIAN_POINT ( 'NONE',  ( 3.558002992641239713E-14, -1.247979454399301863E-15, 10.19052558883258186 ) ) ;
#239 = FACE_BOUND ( 'NONE', #18, .T. ) ;
#240 = DIRECTION ( 'NONE',  ( 0.0000000000000000000, 1.000000000000000000, 0.0000000000000000000 ) ) ;
#241 = DIRECTION ( 'NONE',  ( -3.491481338843133355E-15, 1.224646799147353207E-16, -1.000000000000000000 ) ) ;
#242 = CARTESIAN_POINT ( 'NONE',  ( 8.728703347107833388E-16, 1.509999999999998677, 0.2500000000000000000 ) ) ;
#243 = FACE_BOUND ( 'NONE', #94, .T. ) ;
#244 = VERTEX_POINT ( 'NONE', #9 ) ;
#245 = ADVANCED_FACE ( 'NONE', ( #33, #132 ), #181, .T. ) ;
#246 = DIRECTION ( 'NONE',  ( 0.0000000000000000000, -1.000000000000000000, 0.0000000000000000000 ) ) ;
#247 = APPLICATION_CONTEXT ( 'configuration controlled 3d designs of mechanical parts and assemblies' ) ;
#248 = CIRCLE ( 'NONE', #175, 1.399999999999998357 ) ;
#249 = DIRECTION ( 'NONE',  ( 0.0000000000000000000, 1.000000000000000000, 0.0000000000000000000 ) ) ;
#250 = PERSON_AND_ORGANIZATION ( #121, #8 ) ;
#251 = ORIENTED_EDGE ( 'NONE', *, *, #183, .T. ) ;
#252 = AXIS2_PLACEMENT_3D ( 'NONE', #22, #285, #147 ) ;
#253 = ORIENTED_EDGE ( 'NONE', *, *, #183, .F. ) ;
#254 = DATE_TIME_ROLE ( 'classification_date' ) ;
#255 = ADVANCED_FACE ( 'NONE', ( #152 ), #219, .F. ) ;
#256 = APPROVAL_STATUS ( 'not_yet_approved' ) ;
#257 = DATE_AND_TIME ( #191, #164 ) ;
#258 = ORIENTED_EDGE ( 'NONE', *, *, #107, .F. ) ;
#259 = DIRECTION ( 'NONE',  ( 0.0000000000000000000, 1.000000000000000000, 0.0000000000000000000 ) ) ;
#260 = CYLINDRICAL_SURFACE ( 'NONE', #50, 1.499999999999998446 ) ;
#261 = DIRECTION ( 'NONE',  ( -4.275831445896958607E-31, -1.000000000000000000, -1.224646799147353207E-16 ) ) ;
#262 = LOCAL_TIME ( 8, 17, 55.00000000000000000, #274 ) ;
#263 = EDGE_LOOP ( 'NONE', ( #230 ) ) ;
#264 = ORIENTED_EDGE ( 'NONE', *, *, #269, .F. ) ;
#265 = FACE_OUTER_BOUND ( 'NONE', #190, .T. ) ;
#266 = DIRECTION ( 'NONE',  ( -3.491481338843133355E-15, 1.224646799147353207E-16, -1.000000000000000000 ) ) ;
#267 = CARTESIAN_POINT ( 'NONE',  ( 0.0000000000000000000, 0.0000000000000000000, 0.0000000000000000000 ) ) ;
#268 = CARTESIAN_POINT ( 'NONE',  ( 8.987808100725203251E-14, 1.499999999999992673, 25.74210550901360861 ) ) ;
#269 = EDGE_CURVE ( 'NONE', #155, #155, #208, .T. ) ;
#270 = DIRECTION ( 'NONE',  ( 3.491481338843133355E-15, -1.224646799147353207E-16, 1.000000000000000000 ) ) ;
#271 = DIRECTION ( 'NONE',  ( -3.491481338843133355E-15, 1.224646799147353207E-16, -1.000000000000000000 ) ) ;
#272 = ORIENTED_EDGE ( 'NONE', *, *, #160, .F. ) ;
#273 = CC_DESIGN_SECURITY_CLASSIFICATION ( #292, ( #196 ) ) ;
#274 = COORDINATED_UNIVERSAL_TIME_OFFSET ( 1, 0, .AHEAD. ) ;
#275 = PERSON_AND_ORGANIZATION ( #121, #8 ) ;
#276 = DATE_AND_TIME ( #93, #262 ) ;
#277 = ORIENTED_EDGE ( 'NONE', *, *, #2, .F. ) ;
#278 = AXIS2_PLACEMENT_3D ( 'NONE', #97, #281, #3 ) ;
#279 = EDGE_LOOP ( 'NONE', ( #277 ) ) ;
#280 = CALENDAR_DATE ( 2021, 2, 12 ) ;
#281 = DIRECTION ( 'NONE',  ( -3.491481338843133355E-15, 1.224646799147353207E-16, -1.000000000000000000 ) ) ;
#282 = FACE_OUTER_BOUND ( 'NONE', #186, .T. ) ;
#283 = CARTESIAN_POINT ( 'NONE',  ( 8.728703347107827472E-16, -3.061616997868381169E-17, 0.2499999999999998335 ) ) ;
#284 = AXIS2_PLACEMENT_3D ( 'NONE', #302, #216, #259 ) ;
#285 = DIRECTION ( 'NONE',  ( 3.491481338843133355E-15, -1.224646799147353207E-16, 1.000000000000000000 ) ) ;
#286 = CARTESIAN_POINT ( 'NONE',  ( 2.444036937190193601E-13, -8.572527594031472993E-15, 70.00000000000000000 ) ) ;
#287 = EDGE_CURVE ( 'NONE', #133, #133, #236, .T. ) ;
#288 = DIRECTION ( 'NONE',  ( 4.275831445896958607E-31, 1.000000000000000000, 1.224646799147353207E-16 ) ) ;
#289 = AXIS2_PLACEMENT_3D ( 'NONE', #267, #176, #288 ) ;
#290 = DIRECTION ( 'NONE',  ( -3.491481338843133355E-15, 1.224646799147353207E-16, -1.000000000000000000 ) ) ;
#291 = PERSON_AND_ORGANIZATION ( #121, #8 ) ;
#292 = SECURITY_CLASSIFICATION ( '', '', #163 ) ;
#293 = MANIFOLD_SOLID_BREP ( 'Corps-Déplacer/Copier1[2]', #169 ) ;
#294 = ADVANCED_FACE ( 'NONE', ( #38, #156 ), #25, .T. ) ;
#295 = PERSON_AND_ORGANIZATION ( #121, #8 ) ;
#296 = ORIENTED_EDGE ( 'NONE', *, *, #107, .T. ) ;
#297 =( GEOMETRIC_REPRESENTATION_CONTEXT ( 3 ) GLOBAL_UNCERTAINTY_ASSIGNED_CONTEXT ( ( #89 ) ) GLOBAL_UNIT_ASSIGNED_CONTEXT ( ( #204, #225, #11 ) ) REPRESENTATION_CONTEXT ( 'NONE', 'WORKASPACE' ) );
#298 = PERSON_AND_ORGANIZATION ( #121, #8 ) ;
#299 = EDGE_LOOP ( 'NONE', ( #90 ) ) ;
#300 = CARTESIAN_POINT ( 'NONE',  ( 3.491481338843133355E-14, -1.224646799147353256E-15, 10.00000000000000000 ) ) ;
#301 = AXIS2_PLACEMENT_3D ( 'NONE', #166, #120, #234 ) ;
#302 = CARTESIAN_POINT ( 'NONE',  ( 2.433562493173664138E-13, -8.535788190057053710E-15, 69.70000000000001705 ) ) ;
#303 = ORIENTED_EDGE ( 'NONE', *, *, #287, .T. ) ;
ENDSEC;
END-ISO-10303-21;
