ISO-10303-21;
HEADER;
FILE_DESCRIPTION (( 'STEP AP203' ),
    '1' );
FILE_NAME ('321527.step',
    '2021-12-02T07:17:54',
    ( '' ),
    ( '' ),
    'SwSTEP 2.0',
    'SolidWorks 2019',
    '' );
FILE_SCHEMA (( 'CONFIG_CONTROL_DESIGN' ));
ENDSEC;

DATA;
#1 = APPLICATION_PROTOCOL_DEFINITION ( 'international standard', 'config_control_design', 1994, #109 ) ;
#2 = DIRECTION ( 'NONE',  ( 4.275831445896958607E-31, 1.000000000000000000, 1.224646799147353207E-16 ) ) ;
#3 = EDGE_CURVE ( 'NONE', #64, #64, #163, .T. ) ;
#4 = DIRECTION ( 'NONE',  ( 0.0000000000000000000, 1.000000000000000000, 0.0000000000000000000 ) ) ;
#5 = CYLINDRICAL_SURFACE ( 'NONE', #31, 1.499999999999998446 ) ;
#6 = DIRECTION ( 'NONE',  ( -3.491481338843133355E-15, 1.224646799147353207E-16, -1.000000000000000000 ) ) ;
#7 =( GEOMETRIC_REPRESENTATION_CONTEXT ( 3 ) GLOBAL_UNCERTAINTY_ASSIGNED_CONTEXT ( ( #61 ) ) GLOBAL_UNIT_ASSIGNED_CONTEXT ( ( #66, #121, #100 ) ) REPRESENTATION_CONTEXT ( 'NONE', 'WORKASPACE' ) );
#8 = CYLINDRICAL_SURFACE ( 'NONE', #178, 1.399999999999998801 ) ;
#9 = AXIS2_PLACEMENT_3D ( 'NONE', #180, #298, #300 ) ;
#10 = PRODUCT_RELATED_PRODUCT_CATEGORY ( 'detail', '', ( #243 ) ) ;
#11 = VERTEX_POINT ( 'NONE', #113 ) ;
#12 = VERTEX_POINT ( 'NONE', #38 ) ;
#13 = VERTEX_POINT ( 'NONE', #254 ) ;
#14 = DIRECTION ( 'NONE',  ( -3.491481338843133355E-15, 1.224646799147353207E-16, -1.000000000000000000 ) ) ;
#15 = CARTESIAN_POINT ( 'NONE',  ( 2.444036937190193601E-13, 8.998558695971026591E-33, 70.00000000000000000 ) ) ;
#16 = CIRCLE ( 'NONE', #271, 1.504999999999999893 ) ;
#17 = CC_DESIGN_DATE_AND_TIME_ASSIGNMENT ( #241, #233, ( #22 ) ) ;
#18 = COORDINATED_UNIVERSAL_TIME_OFFSET ( 1, 0, .AHEAD. ) ;
#19 = ORIENTED_EDGE ( 'NONE', *, *, #58, .T. ) ;
#20 = ORIENTED_EDGE ( 'NONE', *, *, #248, .F. ) ;
#21 = PERSON_AND_ORGANIZATION ( #152, #71 ) ;
#22 = SECURITY_CLASSIFICATION ( '', '', #258 ) ;
#23 = DIRECTION ( 'NONE',  ( 0.0000000000000000000, 1.000000000000000000, 0.0000000000000000000 ) ) ;
#24 = PERSON_AND_ORGANIZATION ( #152, #71 ) ;
#25 = ORIENTED_EDGE ( 'NONE', *, *, #44, .F. ) ;
#26 = DIRECTION ( 'NONE',  ( 3.839063012067583559E-31, 1.000000000000000000, 1.080600171912463957E-16 ) ) ;
#27 = DIRECTION ( 'NONE',  ( -3.491481338843133355E-15, 1.224646799147353207E-16, -1.000000000000000000 ) ) ;
#28 = AXIS2_PLACEMENT_3D ( 'NONE', #86, #159, #108 ) ;
#29 = EDGE_CURVE ( 'NONE', #11, #11, #176, .T. ) ;
#30 = APPROVAL_DATE_TIME ( #290, #63 ) ;
#31 = AXIS2_PLACEMENT_3D ( 'NONE', #53, #27, #130 ) ;
#32 = CARTESIAN_POINT ( 'NONE',  ( 3.554979281104961577E-14, 1.399999999999997025, 10.18186533479473788 ) ) ;
#33 = FACE_OUTER_BOUND ( 'NONE', #187, .T. ) ;
#34 = VERTEX_POINT ( 'NONE', #224 ) ;
#35 = EDGE_CURVE ( 'NONE', #107, #107, #77, .T. ) ;
#36 = CARTESIAN_POINT ( 'NONE',  ( 3.554979281104961577E-14, -1.246918879160577016E-15, 10.18186533479473788 ) ) ;
#37 = ORIENTED_EDGE ( 'NONE', *, *, #88, .F. ) ;
#38 = CARTESIAN_POINT ( 'NONE',  ( 8.849961221477468513E-14, 1.430384493975577209, 25.34729635533384240 ) ) ;
#39 = ADVANCED_FACE ( 'NONE', ( #289 ), #151, .T. ) ;
#40 = COORDINATED_UNIVERSAL_TIME_OFFSET ( 1, 0, .AHEAD. ) ;
#41 = AXIS2_PLACEMENT_3D ( 'NONE', #223, #296, #278 ) ;
#42 = EDGE_LOOP ( 'NONE', ( #62 ) ) ;
#43 = APPLICATION_PROTOCOL_DEFINITION ( 'international standard', 'config_control_design', 1994, #238 ) ;
#44 = EDGE_CURVE ( 'NONE', #276, #276, #105, .T. ) ;
#45 = EDGE_LOOP ( 'NONE', ( #301 ) ) ;
#46 = PERSON_AND_ORGANIZATION ( #152, #71 ) ;
#47 = FACE_OUTER_BOUND ( 'NONE', #244, .T. ) ;
#48 = APPROVAL_ROLE ( '' ) ;
#49 = DIRECTION ( 'NONE',  ( 4.275831445896957731E-31, 1.000000000000000000, 1.224646799147353207E-16 ) ) ;
#50 = SHAPE_DEFINITION_REPRESENTATION ( #249, #70 ) ;
#51 = CARTESIAN_POINT ( 'NONE',  ( 8.987808100725203251E-14, -3.152498711492696494E-15, 25.74210550901360861 ) ) ;
#52 = APPROVAL ( #235, 'UNSPECIFIED' ) ;
#53 = CARTESIAN_POINT ( 'NONE',  ( 0.0000000000000000000, 0.0000000000000000000, 0.0000000000000000000 ) ) ;
#54 = ADVANCED_FACE ( 'NONE', ( #269, #123 ), #195, .T. ) ;
#55 = DIRECTION ( 'NONE',  ( -3.491481338843133355E-15, 1.224646799147353207E-16, -1.000000000000000000 ) ) ;
#56 = DIRECTION ( 'NONE',  ( -3.491481338843133355E-15, 1.224646799147353207E-16, -1.000000000000000000 ) ) ;
#57 = DIRECTION ( 'NONE',  ( 3.491481338843133355E-15, -1.224646799147353207E-16, 1.000000000000000000 ) ) ;
#58 = EDGE_CURVE ( 'NONE', #302, #302, #16, .T. ) ;
#59 = LOCAL_TIME ( 8, 17, 54.00000000000000000, #40 ) ;
#60 = CARTESIAN_POINT ( 'NONE',  ( 3.491481338843133355E-14, 1.504999999999998561, 10.00000000000000000 ) ) ;
#61 = UNCERTAINTY_MEASURE_WITH_UNIT (LENGTH_MEASURE( 1.000000000000000082E-05 ), #66, 'distance_accuracy_value', 'NONE');
#62 = ORIENTED_EDGE ( 'NONE', *, *, #274, .T. ) ;
#63 = APPROVAL ( #218, 'UNSPECIFIED' ) ;
#64 = VERTEX_POINT ( 'NONE', #32 ) ;
#65 = ORIENTED_EDGE ( 'NONE', *, *, #35, .T. ) ;
#66 =( LENGTH_UNIT ( ) NAMED_UNIT ( * ) SI_UNIT ( .MILLI., .METRE. ) );
#67 = ORIENTED_EDGE ( 'NONE', *, *, #35, .F. ) ;
#68 = APPROVAL_ROLE ( '' ) ;
#69 = AXIS2_PLACEMENT_3D ( 'NONE', #175, #103, #197 ) ;
#70 = ADVANCED_BREP_SHAPE_REPRESENTATION ( '321527', ( #220, #213, #247 ), #7 ) ;
#71 = ORGANIZATION ( 'UNSPECIFIED', 'UNSPECIFIED', '' ) ;
#72 = CARTESIAN_POINT ( 'NONE',  ( 8.987808100725203251E-14, 1.499999999999992673, 25.74210550901360861 ) ) ;
#73 = DIRECTION ( 'NONE',  ( -3.491481338843133355E-15, 1.224646799147353207E-16, -1.000000000000000000 ) ) ;
#74 = PERSON_AND_ORGANIZATION_ROLE ( 'creator' ) ;
#75 = DIRECTION ( 'NONE',  ( 0.0000000000000000000, 1.000000000000000000, 0.0000000000000000000 ) ) ;
#76 = DATE_AND_TIME ( #139, #261 ) ;
#77 = CIRCLE ( 'NONE', #250, 1.504999999999998561 ) ;
#78 = CC_DESIGN_PERSON_AND_ORGANIZATION_ASSIGNMENT ( #283, #124, ( #294 ) ) ;
#79 = CYLINDRICAL_SURFACE ( 'NONE', #157, 1.504999999999999227 ) ;
#80 = CARTESIAN_POINT ( 'NONE',  ( 0.0000000000000000000, 0.0000000000000000000, 0.0000000000000000000 ) ) ;
#81 = EDGE_CURVE ( 'NONE', #257, #257, #202, .T. ) ;
#82 = TOROIDAL_SURFACE ( 'NONE', #215, 3.399999999999999911, 2.000000000000000000 ) ;
#83 = DIRECTION ( 'NONE',  ( -4.275831445896958607E-31, -1.000000000000000000, -1.224646799147353207E-16 ) ) ;
#84 = ADVANCED_FACE ( 'NONE', ( #47, #287 ), #280, .T. ) ;
#85 = DIRECTION ( 'NONE',  ( -3.491481338843133355E-15, 1.224646799147353207E-16, -1.000000000000000000 ) ) ;
#86 = CARTESIAN_POINT ( 'NONE',  ( 8.728703347107827472E-16, -3.061616997868381169E-17, 0.2499999999999998335 ) ) ;
#87 = FACE_OUTER_BOUND ( 'NONE', #162, .T. ) ;
#88 = EDGE_CURVE ( 'NONE', #13, #13, #95, .T. ) ;
#89 = EDGE_LOOP ( 'NONE', ( #117 ) ) ;
#90 = CIRCLE ( 'NONE', #188, 1.499999999999996003 ) ;
#91 = DIRECTION ( 'NONE',  ( 0.0000000000000000000, 1.000000000000000000, 0.0000000000000000000 ) ) ;
#92 = PERSON_AND_ORGANIZATION ( #152, #71 ) ;
#93 = APPROVAL ( #98, 'UNSPECIFIED' ) ;
#94 = MECHANICAL_CONTEXT ( 'NONE', #238, 'mechanical' ) ;
#95 = CIRCLE ( 'NONE', #246, 1.255000000000001448 ) ;
#96 = LOCAL_TIME ( 8, 17, 54.00000000000000000, #18 ) ;
#97 = FACE_OUTER_BOUND ( 'NONE', #89, .T. ) ;
#98 = APPROVAL_STATUS ( 'not_yet_approved' ) ;
#99 = DIRECTION ( 'NONE',  ( 3.491481338843133355E-15, -1.224646799147353207E-16, 1.000000000000000000 ) ) ;
#100 =( NAMED_UNIT ( * ) SI_UNIT ( $, .STERADIAN. ) SOLID_ANGLE_UNIT ( ) );
#101 = DIRECTION ( 'NONE',  ( 0.0000000000000000000, 1.000000000000000000, 0.0000000000000000000 ) ) ;
#102 = DIRECTION ( 'NONE',  ( 0.0000000000000000000, 1.000000000000000000, 0.0000000000000000000 ) ) ;
#103 = DIRECTION ( 'NONE',  ( -3.491481338843133355E-15, 1.224646799147353207E-16, -1.000000000000000000 ) ) ;
#104 = ADVANCED_FACE ( 'NONE', ( #146, #219 ), #79, .T. ) ;
#105 = CIRCLE ( 'NONE', #118, 1.504999999999999893 ) ;
#106 = CONICAL_SURFACE ( 'NONE', #28, 1.504999999999998561, 0.7853981633974430610 ) ;
#107 = VERTEX_POINT ( 'NONE', #200 ) ;
#108 = DIRECTION ( 'NONE',  ( -3.839063012067583559E-31, -1.000000000000000000, -1.080600171912463957E-16 ) ) ;
#109 = APPLICATION_CONTEXT ( 'configuration controlled 3d designs of mechanical parts and assemblies' ) ;
#110 = APPROVAL_PERSON_ORGANIZATION ( #165, #93, #259 ) ;
#111 = DIRECTION ( 'NONE',  ( 0.0000000000000000000, 1.000000000000000000, 0.0000000000000000000 ) ) ;
#112 = ADVANCED_FACE ( 'NONE', ( #292, #267 ), #5, .T. ) ;
#113 = CARTESIAN_POINT ( 'NONE',  ( 2.444036937190193601E-13, 1.199999999999992628, 70.00000000000000000 ) ) ;
#114 = DESIGN_CONTEXT ( 'detailed design', #109, 'design' ) ;
#115 = EDGE_LOOP ( 'NONE', ( #299 ) ) ;
#116 = PLANE ( 'NONE',  #252 ) ;
#117 = ORIENTED_EDGE ( 'NONE', *, *, #3, .F. ) ;
#118 = AXIS2_PLACEMENT_3D ( 'NONE', #168, #266, #4 ) ;
#119 = CC_DESIGN_SECURITY_CLASSIFICATION ( #22, ( #183 ) ) ;
#120 = PERSON_AND_ORGANIZATION ( #152, #71 ) ;
#121 =( NAMED_UNIT ( * ) PLANE_ANGLE_UNIT ( ) SI_UNIT ( $, .RADIAN. ) );
#122 = EDGE_LOOP ( 'NONE', ( #217 ) ) ;
#123 = FACE_OUTER_BOUND ( 'NONE', #42, .T. ) ;
#124 = PERSON_AND_ORGANIZATION_ROLE ( 'creator' ) ;
#125 = LOCAL_TIME ( 8, 17, 54.00000000000000000, #279 ) ;
#126 = EDGE_LOOP ( 'NONE', ( #284 ) ) ;
#127 = CC_DESIGN_PERSON_AND_ORGANIZATION_ASSIGNMENT ( #92, #169, ( #183 ) ) ;
#128 = CARTESIAN_POINT ( 'NONE',  ( 3.491481338843133355E-14, -1.224646799147353256E-15, 10.00000000000000000 ) ) ;
#129 = CIRCLE ( 'NONE', #41, 1.399999999999999689 ) ;
#130 = DIRECTION ( 'NONE',  ( 4.275831445896958607E-31, 1.000000000000000000, 1.224646799147353207E-16 ) ) ;
#131 = ADVANCED_FACE ( 'NONE', ( #97, #222 ), #8, .T. ) ;
#132 = LOCAL_TIME ( 8, 17, 54.00000000000000000, #231 ) ;
#133 = FACE_BOUND ( 'NONE', #140, .T. ) ;
#134 = FACE_BOUND ( 'NONE', #161, .T. ) ;
#135 = VERTEX_POINT ( 'NONE', #72 ) ;
#136 = DIRECTION ( 'NONE',  ( 4.275831445896958607E-31, 1.000000000000000000, 1.224646799147353207E-16 ) ) ;
#137 = EDGE_LOOP ( 'NONE', ( #67 ) ) ;
#138 = CARTESIAN_POINT ( 'NONE',  ( 8.849961221477468513E-14, -3.104148534859896361E-15, 25.34729635533384240 ) ) ;
#139 = CALENDAR_DATE ( 2021, 2, 12 ) ;
#140 = EDGE_LOOP ( 'NONE', ( #37 ) ) ;
#141 = AXIS2_PLACEMENT_3D ( 'NONE', #192, #239, #147 ) ;
#142 = PERSON_AND_ORGANIZATION ( #152, #71 ) ;
#143 = ORIENTED_EDGE ( 'NONE', *, *, #155, .F. ) ;
#144 = PERSON_AND_ORGANIZATION_ROLE ( 'design_owner' ) ;
#145 = PERSON_AND_ORGANIZATION_ROLE ( 'classification_officer' ) ;
#146 = FACE_OUTER_BOUND ( 'NONE', #137, .T. ) ;
#147 = DIRECTION ( 'NONE',  ( -4.275831445896958607E-31, -1.000000000000000000, -1.224646799147353207E-16 ) ) ;
#148 = DIRECTION ( 'NONE',  ( -3.491481338843133355E-15, 1.224646799147353207E-16, -1.000000000000000000 ) ) ;
#149 = AXIS2_PLACEMENT_3D ( 'NONE', #196, #291, #75 ) ;
#150 = CC_DESIGN_DATE_AND_TIME_ASSIGNMENT ( #167, #216, ( #294 ) ) ;
#151 = PLANE ( 'NONE',  #141 ) ;
#152 = PERSON ( 'UNSPECIFIED', 'UNSPECIFIED', 'UNSPECIFIED', ('UNSPECIFIED'), ('UNSPECIFIED'), ('UNSPECIFIED') ) ;
#153 = CARTESIAN_POINT ( 'NONE',  ( 3.491481338843133355E-14, 1.504999999999998561, 10.00000000000000000 ) ) ;
#154 = DIRECTION ( 'NONE',  ( -3.491481338843133355E-15, 1.224646799147353207E-16, -1.000000000000000000 ) ) ;
#155 = EDGE_CURVE ( 'NONE', #34, #34, #129, .T. ) ;
#156 = FACE_OUTER_BOUND ( 'NONE', #260, .T. ) ;
#157 = AXIS2_PLACEMENT_3D ( 'NONE', #190, #245, #2 ) ;
#158 = AXIS2_PLACEMENT_3D ( 'NONE', #138, #273, #229 ) ;
#159 = DIRECTION ( 'NONE',  ( 3.491481338843133355E-15, -1.224646799147353207E-16, 1.000000000000000000 ) ) ;
#160 = FACE_OUTER_BOUND ( 'NONE', #281, .T. ) ;
#161 = EDGE_LOOP ( 'NONE', ( #194 ) ) ;
#162 = EDGE_LOOP ( 'NONE', ( #236 ) ) ;
#163 = CIRCLE ( 'NONE', #208, 1.399999999999998357 ) ;
#164 = APPROVAL_PERSON_ORGANIZATION ( #21, #52, #48 ) ;
#165 = PERSON_AND_ORGANIZATION ( #152, #71 ) ;
#166 = ORIENTED_EDGE ( 'NONE', *, *, #155, .T. ) ;
#167 = DATE_AND_TIME ( #193, #125 ) ;
#168 = CARTESIAN_POINT ( 'NONE',  ( 3.491481338843133355E-14, -1.224646799147353256E-15, 10.00000000000000000 ) ) ;
#169 = PERSON_AND_ORGANIZATION_ROLE ( 'design_supplier' ) ;
#170 = CARTESIAN_POINT ( 'NONE',  ( 2.204774840931957198E-31, -7.733309130853256404E-33, 6.314726120410789426E-17 ) ) ;
#171 = CLOSED_SHELL ( 'NONE', ( #270, #237, #104, #39 ) ) ;
#172 = AXIS2_PLACEMENT_3D ( 'NONE', #15, #56, #205 ) ;
#173 = EDGE_LOOP ( 'NONE', ( #221 ) ) ;
#174 = CARTESIAN_POINT ( 'NONE',  ( 8.728703347107827472E-16, -3.061616997868381169E-17, 0.2499999999999998335 ) ) ;
#175 = CARTESIAN_POINT ( 'NONE',  ( 2.444036937190193601E-13, -8.572527594031472993E-15, 70.00000000000000000 ) ) ;
#176 = CIRCLE ( 'NONE', #69, 1.200000000000001510 ) ;
#177 = CC_DESIGN_PERSON_AND_ORGANIZATION_ASSIGNMENT ( #142, #74, ( #183 ) ) ;
#178 = AXIS2_PLACEMENT_3D ( 'NONE', #80, #201, #136 ) ;
#179 = FACE_OUTER_BOUND ( 'NONE', #45, .T. ) ;
#180 = CARTESIAN_POINT ( 'NONE',  ( 3.491481338843133355E-14, 1.128569236453045825E-32, 10.00000000000000000 ) ) ;
#181 = ORIENTED_EDGE ( 'NONE', *, *, #81, .T. ) ;
#182 = DIRECTION ( 'NONE',  ( 4.275831445896958607E-31, 1.000000000000000000, 1.224646799147353207E-16 ) ) ;
#183 = PRODUCT_DEFINITION_FORMATION_WITH_SPECIFIED_SOURCE ( 'ANY', '', #243, .NOT_KNOWN. ) ;
#184 = FACE_OUTER_BOUND ( 'NONE', #185, .T. ) ;
#185 = EDGE_LOOP ( 'NONE', ( #251 ) ) ;
#186 = CALENDAR_DATE ( 2021, 2, 12 ) ;
#187 = EDGE_LOOP ( 'NONE', ( #25 ) ) ;
#188 = AXIS2_PLACEMENT_3D ( 'NONE', #255, #154, #111 ) ;
#189 = DATE_AND_TIME ( #210, #132 ) ;
#190 = CARTESIAN_POINT ( 'NONE',  ( 0.0000000000000000000, 0.0000000000000000000, 0.0000000000000000000 ) ) ;
#191 = DIRECTION ( 'NONE',  ( 0.0000000000000000000, 0.0000000000000000000, 1.000000000000000000 ) ) ;
#192 = CARTESIAN_POINT ( 'NONE',  ( 3.491481338843133355E-14, 1.128569236453045825E-32, 10.00000000000000000 ) ) ;
#193 = CALENDAR_DATE ( 2021, 2, 12 ) ;
#194 = ORIENTED_EDGE ( 'NONE', *, *, #3, .T. ) ;
#195 = CONICAL_SURFACE ( 'NONE', #232, 1.499999999999996003, 0.1745329251994282016 ) ;
#196 = CARTESIAN_POINT ( 'NONE',  ( 2.444036937190193601E-13, -8.572527594031472993E-15, 70.00000000000000000 ) ) ;
#197 = DIRECTION ( 'NONE',  ( 0.0000000000000000000, 1.000000000000000000, 0.0000000000000000000 ) ) ;
#198 = CC_DESIGN_PERSON_AND_ORGANIZATION_ASSIGNMENT ( #46, #144, ( #243 ) ) ;
#199 = CC_DESIGN_APPROVAL ( #52, ( #294 ) ) ;
#200 = CARTESIAN_POINT ( 'NONE',  ( 8.728703347107833388E-16, 1.504999999999998561, 0.2500000000000000000 ) ) ;
#201 = DIRECTION ( 'NONE',  ( -3.491481338843133355E-15, 1.224646799147353207E-16, -1.000000000000000000 ) ) ;
#202 = CIRCLE ( 'NONE', #293, 1.500000000000001110 ) ;
#203 = AXIS2_PLACEMENT_3D ( 'NONE', #36, #85, #91 ) ;
#204 = ADVANCED_FACE ( 'NONE', ( #33, #134 ), #265, .T. ) ;
#205 = DIRECTION ( 'NONE',  ( 4.275831445896958607E-31, 1.000000000000000000, 1.224646799147353207E-16 ) ) ;
#206 = FACE_OUTER_BOUND ( 'NONE', #126, .T. ) ;
#207 = CARTESIAN_POINT ( 'NONE',  ( 8.728703347107833388E-14, -3.035766082959412415E-15, 25.00000000000000000 ) ) ;
#208 = AXIS2_PLACEMENT_3D ( 'NONE', #242, #55, #101 ) ;
#209 = CC_DESIGN_APPROVAL ( #93, ( #183 ) ) ;
#210 = CALENDAR_DATE ( 2021, 2, 12 ) ;
#211 = EDGE_LOOP ( 'NONE', ( #166 ) ) ;
#212 = APPROVAL_DATE_TIME ( #189, #52 ) ;
#213 = MANIFOLD_SOLID_BREP ( 'Corps-Déplacer/Copier1[2]', #171 ) ;
#214 = CARTESIAN_POINT ( 'NONE',  ( 2.433562493173664138E-13, -8.535788190057053710E-15, 69.70000000000001705 ) ) ;
#215 = AXIS2_PLACEMENT_3D ( 'NONE', #207, #14, #182 ) ;
#216 = DATE_TIME_ROLE ( 'creation_date' ) ;
#217 = ORIENTED_EDGE ( 'NONE', *, *, #58, .F. ) ;
#218 = APPROVAL_STATUS ( 'not_yet_approved' ) ;
#219 = FACE_OUTER_BOUND ( 'NONE', #227, .T. ) ;
#220 = MANIFOLD_SOLID_BREP ( 'Corps-Déplacer/Copier1[1]', #240 ) ;
#221 = ORIENTED_EDGE ( 'NONE', *, *, #274, .F. ) ;
#222 = FACE_OUTER_BOUND ( 'NONE', #211, .T. ) ;
#223 = CARTESIAN_POINT ( 'NONE',  ( 8.728703347107833388E-14, -3.061616997868383043E-15, 25.00000000000000000 ) ) ;
#224 = CARTESIAN_POINT ( 'NONE',  ( 8.728703347107833388E-14, 1.399999999999996803, 25.00000000000000000 ) ) ;
#225 = CC_DESIGN_PERSON_AND_ORGANIZATION_ASSIGNMENT ( #120, #145, ( #22 ) ) ;
#226 = CARTESIAN_POINT ( 'NONE',  ( 1.102387420465978599E-31, -3.866654565426628202E-33, 3.157363060205394713E-17 ) ) ;
#227 = EDGE_LOOP ( 'NONE', ( #19 ) ) ;
#228 = ADVANCED_FACE ( 'NONE', ( #179 ), #295, .F. ) ;
#229 = DIRECTION ( 'NONE',  ( 0.0000000000000000000, 1.000000000000000000, 0.0000000000000000000 ) ) ;
#230 = EDGE_LOOP ( 'NONE', ( #181 ) ) ;
#231 = COORDINATED_UNIVERSAL_TIME_OFFSET ( 1, 0, .AHEAD. ) ;
#232 = AXIS2_PLACEMENT_3D ( 'NONE', #51, #99, #263 ) ;
#233 = DATE_TIME_ROLE ( 'classification_date' ) ;
#234 = ORIENTED_EDGE ( 'NONE', *, *, #81, .F. ) ;
#235 = APPROVAL_STATUS ( 'not_yet_approved' ) ;
#236 = ORIENTED_EDGE ( 'NONE', *, *, #88, .T. ) ;
#237 = ADVANCED_FACE ( 'NONE', ( #133, #156 ), #106, .T. ) ;
#238 = APPLICATION_CONTEXT ( 'configuration controlled 3d designs of mechanical parts and assemblies' ) ;
#239 = DIRECTION ( 'NONE',  ( 3.491481338843133355E-15, -1.224646799147353207E-16, 1.000000000000000000 ) ) ;
#240 = CLOSED_SHELL ( 'NONE', ( #228, #204, #131, #297, #54, #112, #84, #286 ) ) ;
#241 = DATE_AND_TIME ( #186, #59 ) ;
#242 = CARTESIAN_POINT ( 'NONE',  ( 3.554979281104961577E-14, -1.246918879160577016E-15, 10.18186533479473788 ) ) ;
#243 = PRODUCT ( '321527', '321527', '', ( #94 ) ) ;
#244 = EDGE_LOOP ( 'NONE', ( #234 ) ) ;
#245 = DIRECTION ( 'NONE',  ( -3.491481338843133355E-15, 1.224646799147353207E-16, -1.000000000000000000 ) ) ;
#246 = AXIS2_PLACEMENT_3D ( 'NONE', #170, #264, #49 ) ;
#247 = AXIS2_PLACEMENT_3D ( 'NONE', #288, #191, #262 ) ;
#248 = EDGE_CURVE ( 'NONE', #12, #12, #277, .T. ) ;
#249 = PRODUCT_DEFINITION_SHAPE ( 'NONE', 'NONE',  #294 ) ;
#250 = AXIS2_PLACEMENT_3D ( 'NONE', #174, #73, #26 ) ;
#251 = ORIENTED_EDGE ( 'NONE', *, *, #29, .F. ) ;
#252 = AXIS2_PLACEMENT_3D ( 'NONE', #226, #57, #83 ) ;
#253 = CARTESIAN_POINT ( 'NONE',  ( 2.433562493173664138E-13, 1.499999999999992673, 69.70000000000001705 ) ) ;
#254 = CARTESIAN_POINT ( 'NONE',  ( 7.570943305532645426E-31, 1.255000000000001448, 2.168404344971008868E-16 ) ) ;
#255 = CARTESIAN_POINT ( 'NONE',  ( 8.987808100725203251E-14, -3.152498711492696494E-15, 25.74210550901360861 ) ) ;
#256 = CC_DESIGN_APPROVAL ( #63, ( #22 ) ) ;
#257 = VERTEX_POINT ( 'NONE', #253 ) ;
#258 = SECURITY_CLASSIFICATION_LEVEL ( 'unclassified' ) ;
#259 = APPROVAL_ROLE ( '' ) ;
#260 = EDGE_LOOP ( 'NONE', ( #65 ) ) ;
#261 = LOCAL_TIME ( 8, 17, 54.00000000000000000, #285 ) ;
#262 = DIRECTION ( 'NONE',  ( 1.000000000000000000, 0.0000000000000000000, 0.0000000000000000000 ) ) ;
#263 = DIRECTION ( 'NONE',  ( 0.0000000000000000000, -1.000000000000000000, 0.0000000000000000000 ) ) ;
#264 = DIRECTION ( 'NONE',  ( -3.491481338843133355E-15, 1.224646799147353207E-16, -1.000000000000000000 ) ) ;
#265 = CONICAL_SURFACE ( 'NONE', #203, 1.399999999999998357, 0.5235987755982940417 ) ;
#266 = DIRECTION ( 'NONE',  ( -3.491481338843133355E-15, 1.224646799147353207E-16, -1.000000000000000000 ) ) ;
#267 = FACE_OUTER_BOUND ( 'NONE', #230, .T. ) ;
#268 = CALENDAR_DATE ( 2021, 2, 12 ) ;
#269 = FACE_BOUND ( 'NONE', #275, .T. ) ;
#270 = ADVANCED_FACE ( 'NONE', ( #87 ), #116, .F. ) ;
#271 = AXIS2_PLACEMENT_3D ( 'NONE', #128, #148, #23 ) ;
#272 = PLANE ( 'NONE',  #172 ) ;
#273 = DIRECTION ( 'NONE',  ( -3.491481338843133355E-15, 1.224646799147353207E-16, -1.000000000000000000 ) ) ;
#274 = EDGE_CURVE ( 'NONE', #135, #135, #90, .T. ) ;
#275 = EDGE_LOOP ( 'NONE', ( #20 ) ) ;
#276 = VERTEX_POINT ( 'NONE', #153 ) ;
#277 = CIRCLE ( 'NONE', #158, 1.430384493975580318 ) ;
#278 = DIRECTION ( 'NONE',  ( 0.0000000000000000000, 1.000000000000000000, 0.0000000000000000000 ) ) ;
#279 = COORDINATED_UNIVERSAL_TIME_OFFSET ( 1, 0, .AHEAD. ) ;
#280 = CONICAL_SURFACE ( 'NONE', #149, 1.200000000000001510, 0.7853981633974566057 ) ;
#281 = EDGE_LOOP ( 'NONE', ( #143 ) ) ;
#282 = APPROVAL_PERSON_ORGANIZATION ( #24, #63, #68 ) ;
#283 = PERSON_AND_ORGANIZATION ( #152, #71 ) ;
#284 = ORIENTED_EDGE ( 'NONE', *, *, #248, .T. ) ;
#285 = COORDINATED_UNIVERSAL_TIME_OFFSET ( 1, 0, .AHEAD. ) ;
#286 = ADVANCED_FACE ( 'NONE', ( #184 ), #272, .F. ) ;
#287 = FACE_BOUND ( 'NONE', #115, .T. ) ;
#288 = CARTESIAN_POINT ( 'NONE',  ( 0.0000000000000000000, 0.0000000000000000000, 0.0000000000000000000 ) ) ;
#289 = FACE_OUTER_BOUND ( 'NONE', #122, .T. ) ;
#290 = DATE_AND_TIME ( #268, #96 ) ;
#291 = DIRECTION ( 'NONE',  ( -3.491481338843133355E-15, 1.224646799147353207E-16, -1.000000000000000000 ) ) ;
#292 = FACE_OUTER_BOUND ( 'NONE', #173, .T. ) ;
#293 = AXIS2_PLACEMENT_3D ( 'NONE', #214, #6, #102 ) ;
#294 = PRODUCT_DEFINITION ( 'UNKNOWN', '', #183, #114 ) ;
#295 = PLANE ( 'NONE',  #9 ) ;
#296 = DIRECTION ( 'NONE',  ( -3.491481338843133355E-15, 1.224646799147353207E-16, -1.000000000000000000 ) ) ;
#297 = ADVANCED_FACE ( 'NONE', ( #160, #206 ), #82, .F. ) ;
#298 = DIRECTION ( 'NONE',  ( 3.491481338843133355E-15, -1.224646799147353207E-16, 1.000000000000000000 ) ) ;
#299 = ORIENTED_EDGE ( 'NONE', *, *, #29, .T. ) ;
#300 = DIRECTION ( 'NONE',  ( -4.275831445896958607E-31, -1.000000000000000000, -1.224646799147353207E-16 ) ) ;
#301 = ORIENTED_EDGE ( 'NONE', *, *, #44, .T. ) ;
#302 = VERTEX_POINT ( 'NONE', #60 ) ;
#303 = APPROVAL_DATE_TIME ( #76, #93 ) ;
ENDSEC;
END-ISO-10303-21;
