ISO-10303-21;
HEADER;
FILE_DESCRIPTION (( 'STEP AP203' ),
    '1' );
FILE_NAME ('321526.step',
    '2021-12-02T07:17:54',
    ( '' ),
    ( '' ),
    'SwSTEP 2.0',
    'SolidWorks 2019',
    '' );
FILE_SCHEMA (( 'CONFIG_CONTROL_DESIGN' ));
ENDSEC;

DATA;
#1 = DIRECTION ( 'NONE',  ( -3.491481338843133355E-15, 1.224646799147353207E-16, -1.000000000000000000 ) ) ;
#2 = CONICAL_SURFACE ( 'NONE', #65, 1.200000000000001510, 0.7853981633974566057 ) ;
#3 = DIRECTION ( 'NONE',  ( -3.491481338843133355E-15, 1.224646799147353207E-16, -1.000000000000000000 ) ) ;
#4 = VERTEX_POINT ( 'NONE', #283 ) ;
#5 = ADVANCED_FACE ( 'NONE', ( #224 ), #107, .F. ) ;
#6 = ORIENTED_EDGE ( 'NONE', *, *, #186, .F. ) ;
#7 = COORDINATED_UNIVERSAL_TIME_OFFSET ( 1, 0, .AHEAD. ) ;
#8 = CLOSED_SHELL ( 'NONE', ( #5, #193, #179, #26, #42, #297, #84, #291 ) ) ;
#9 = EDGE_LOOP ( 'NONE', ( #123 ) ) ;
#10 = DIRECTION ( 'NONE',  ( 1.000000000000000000, 0.0000000000000000000, 0.0000000000000000000 ) ) ;
#11 = CC_DESIGN_PERSON_AND_ORGANIZATION_ASSIGNMENT ( #217, #286, ( #77 ) ) ;
#12 = DATE_AND_TIME ( #60, #251 ) ;
#13 = CIRCLE ( 'NONE', #25, 1.399999999999999689 ) ;
#14 = PERSON ( 'UNSPECIFIED', 'UNSPECIFIED', 'UNSPECIFIED', ('UNSPECIFIED'), ('UNSPECIFIED'), ('UNSPECIFIED') ) ;
#15 = ORIENTED_EDGE ( 'NONE', *, *, #54, .F. ) ;
#16 = DIRECTION ( 'NONE',  ( 3.851859888774475209E-31, 1.000000000000000000, 1.084202172485505420E-16 ) ) ;
#17 = CARTESIAN_POINT ( 'NONE',  ( 6.011625650927763750E-31, -2.108594432161614301E-32, 1.721798018522320006E-16 ) ) ;
#18 = CIRCLE ( 'NONE', #40, 1.399999999999998357 ) ;
#19 = DIRECTION ( 'NONE',  ( 4.275831445896958607E-31, 1.000000000000000000, 1.224646799147353207E-16 ) ) ;
#20 = DIRECTION ( 'NONE',  ( -3.491481338843133355E-15, 1.224646799147353207E-16, -1.000000000000000000 ) ) ;
#21 = CARTESIAN_POINT ( 'NONE',  ( 8.987808100725203251E-14, -3.152498711492696494E-15, 25.74210550901360861 ) ) ;
#22 = VERTEX_POINT ( 'NONE', #239 ) ;
#23 =( LENGTH_UNIT ( ) NAMED_UNIT ( * ) SI_UNIT ( .MILLI., .METRE. ) );
#24 = FACE_OUTER_BOUND ( 'NONE', #288, .T. ) ;
#25 = AXIS2_PLACEMENT_3D ( 'NONE', #282, #70, #74 ) ;
#26 = ADVANCED_FACE ( 'NONE', ( #201, #137 ), #31, .F. ) ;
#27 = CARTESIAN_POINT ( 'NONE',  ( 3.551955569568684704E-14, -1.245858303921851972E-15, 10.17320508075689389 ) ) ;
#28 = PERSON_AND_ORGANIZATION ( #14, #299 ) ;
#29 = DATE_TIME_ROLE ( 'classification_date' ) ;
#30 = EDGE_LOOP ( 'NONE', ( #221 ) ) ;
#31 = TOROIDAL_SURFACE ( 'NONE', #195, 3.399999999999999911, 2.000000000000000000 ) ;
#32 = APPROVAL_STATUS ( 'not_yet_approved' ) ;
#33 = EDGE_LOOP ( 'NONE', ( #59 ) ) ;
#34 = APPROVAL_STATUS ( 'not_yet_approved' ) ;
#35 = ORIENTED_EDGE ( 'NONE', *, *, #205, .T. ) ;
#36 = CALENDAR_DATE ( 2021, 2, 12 ) ;
#37 = PRODUCT_DEFINITION_FORMATION_WITH_SPECIFIED_SOURCE ( 'ANY', '', #66, .NOT_KNOWN. ) ;
#38 = DIRECTION ( 'NONE',  ( 4.275831445896958607E-31, 1.000000000000000000, 1.224646799147353207E-16 ) ) ;
#39 = CARTESIAN_POINT ( 'NONE',  ( 3.491481338843133355E-14, 1.124819836996391290E-32, 10.00000000000000000 ) ) ;
#40 = AXIS2_PLACEMENT_3D ( 'NONE', #275, #156, #273 ) ;
#41 = DIRECTION ( 'NONE',  ( -3.491481338843133355E-15, 1.224646799147353207E-16, -1.000000000000000000 ) ) ;
#42 = ADVANCED_FACE ( 'NONE', ( #161, #296 ), #203, .T. ) ;
#43 = DIRECTION ( 'NONE',  ( 4.275831445896958607E-31, 1.000000000000000000, 1.224646799147353207E-16 ) ) ;
#44 = FACE_OUTER_BOUND ( 'NONE', #246, .T. ) ;
#45 = AXIS2_PLACEMENT_3D ( 'NONE', #199, #254, #132 ) ;
#46 = AXIS2_PLACEMENT_3D ( 'NONE', #162, #215, #119 ) ;
#47 = AXIS2_PLACEMENT_3D ( 'NONE', #21, #292, #208 ) ;
#48 = CYLINDRICAL_SURFACE ( 'NONE', #124, 1.499999999999999334 ) ;
#49 = ADVANCED_FACE ( 'NONE', ( #155 ), #133, .F. ) ;
#50 = CARTESIAN_POINT ( 'NONE',  ( 2.433562493173664138E-13, 1.499999999999992673, 69.70000000000001705 ) ) ;
#51 = CC_DESIGN_PERSON_AND_ORGANIZATION_ASSIGNMENT ( #177, #174, ( #37 ) ) ;
#52 = APPROVAL_STATUS ( 'not_yet_approved' ) ;
#53 = SECURITY_CLASSIFICATION_LEVEL ( 'unclassified' ) ;
#54 = EDGE_CURVE ( 'NONE', #163, #163, #71, .T. ) ;
#55 = ORIENTED_EDGE ( 'NONE', *, *, #158, .F. ) ;
#56 = PERSON_AND_ORGANIZATION ( #14, #299 ) ;
#57 = EDGE_LOOP ( 'NONE', ( #35 ) ) ;
#58 = AXIS2_PLACEMENT_3D ( 'NONE', #17, #250, #38 ) ;
#59 = ORIENTED_EDGE ( 'NONE', *, *, #78, .F. ) ;
#60 = CALENDAR_DATE ( 2021, 2, 12 ) ;
#61 = ADVANCED_FACE ( 'NONE', ( #180 ), #111, .T. ) ;
#62 = DIRECTION ( 'NONE',  ( -3.491481338843133355E-15, 1.224646799147353207E-16, -1.000000000000000000 ) ) ;
#63 = MANIFOLD_SOLID_BREP ( 'Corps-Déplacer/Copier1[1]', #8 ) ;
#64 = DIRECTION ( 'NONE',  ( 0.0000000000000000000, 1.000000000000000000, 0.0000000000000000000 ) ) ;
#65 = AXIS2_PLACEMENT_3D ( 'NONE', #92, #185, #295 ) ;
#66 = PRODUCT ( '321526', '321526', '', ( #101 ) ) ;
#67 = DIRECTION ( 'NONE',  ( -3.491481338843133355E-15, 1.224646799147353207E-16, -1.000000000000000000 ) ) ;
#68 = FACE_OUTER_BOUND ( 'NONE', #82, .T. ) ;
#69 = DIRECTION ( 'NONE',  ( 4.275831445896958607E-31, 1.000000000000000000, 1.224646799147353454E-16 ) ) ;
#70 = DIRECTION ( 'NONE',  ( -3.491481338843133355E-15, 1.224646799147353207E-16, -1.000000000000000000 ) ) ;
#71 = CIRCLE ( 'NONE', #219, 1.430384493975580318 ) ;
#72 = AXIS2_PLACEMENT_3D ( 'NONE', #95, #192, #43 ) ;
#73 = CARTESIAN_POINT ( 'NONE',  ( 8.987808100725203251E-14, 1.499999999999992673, 25.74210550901360861 ) ) ;
#74 = DIRECTION ( 'NONE',  ( 0.0000000000000000000, 1.000000000000000000, 0.0000000000000000000 ) ) ;
#75 = APPROVAL ( #34, 'UNSPECIFIED' ) ;
#76 = CARTESIAN_POINT ( 'NONE',  ( 0.0000000000000000000, 0.0000000000000000000, 0.0000000000000000000 ) ) ;
#77 = SECURITY_CLASSIFICATION ( '', '', #53 ) ;
#78 = EDGE_CURVE ( 'NONE', #260, #260, #87, .T. ) ;
#79 = EDGE_LOOP ( 'NONE', ( #152 ) ) ;
#80 = ORIENTED_EDGE ( 'NONE', *, *, #100, .T. ) ;
#81 = DATE_AND_TIME ( #242, #98 ) ;
#82 = EDGE_LOOP ( 'NONE', ( #127 ) ) ;
#83 = APPROVAL_DATE_TIME ( #81, #271 ) ;
#84 = ADVANCED_FACE ( 'NONE', ( #94, #227 ), #2, .T. ) ;
#85 = ORIENTED_EDGE ( 'NONE', *, *, #302, .T. ) ;
#86 = DIRECTION ( 'NONE',  ( 3.491481338843133355E-15, -1.224646799147353207E-16, 1.000000000000000000 ) ) ;
#87 = CIRCLE ( 'NONE', #252, 1.500000000000001110 ) ;
#88 = EDGE_CURVE ( 'NONE', #213, #213, #18, .T. ) ;
#89 = LOCAL_TIME ( 8, 17, 54.00000000000000000, #7 ) ;
#90 = DIRECTION ( 'NONE',  ( 3.491481338843133355E-15, -1.224646799147353207E-16, 1.000000000000000000 ) ) ;
#91 = DIRECTION ( 'NONE',  ( 0.0000000000000000000, 1.000000000000000000, 0.0000000000000000000 ) ) ;
#92 = CARTESIAN_POINT ( 'NONE',  ( 2.444036937190193601E-13, -8.572527594031472993E-15, 70.00000000000000000 ) ) ;
#93 = AXIS2_PLACEMENT_3D ( 'NONE', #189, #3, #167 ) ;
#94 = FACE_OUTER_BOUND ( 'NONE', #33, .T. ) ;
#95 = CARTESIAN_POINT ( 'NONE',  ( 0.0000000000000000000, 0.0000000000000000000, 0.0000000000000000000 ) ) ;
#96 = VERTEX_POINT ( 'NONE', #191 ) ;
#97 = CIRCLE ( 'NONE', #268, 1.499999999999998668 ) ;
#98 = LOCAL_TIME ( 8, 17, 54.00000000000000000, #247 ) ;
#99 = VERTEX_POINT ( 'NONE', #73 ) ;
#100 = EDGE_CURVE ( 'NONE', #139, #139, #115, .T. ) ;
#101 = MECHANICAL_CONTEXT ( 'NONE', #154, 'mechanical' ) ;
#102 = CONICAL_SURFACE ( 'NONE', #159, 1.399999999999998357, 0.5235987755982923764 ) ;
#103 = DIRECTION ( 'NONE',  ( 0.0000000000000000000, 0.0000000000000000000, 1.000000000000000000 ) ) ;
#104 = PERSON_AND_ORGANIZATION ( #14, #299 ) ;
#105 = ORIENTED_EDGE ( 'NONE', *, *, #136, .T. ) ;
#106 = PERSON_AND_ORGANIZATION ( #14, #299 ) ;
#107 = PLANE ( 'NONE',  #45 ) ;
#108 =( GEOMETRIC_REPRESENTATION_CONTEXT ( 3 ) GLOBAL_UNCERTAINTY_ASSIGNED_CONTEXT ( ( #168 ) ) GLOBAL_UNIT_ASSIGNED_CONTEXT ( ( #23, #166, #122 ) ) REPRESENTATION_CONTEXT ( 'NONE', 'WORKASPACE' ) );
#109 = EDGE_LOOP ( 'NONE', ( #290 ) ) ;
#110 = CYLINDRICAL_SURFACE ( 'NONE', #164, 1.399999999999998801 ) ;
#111 = PLANE ( 'NONE',  #258 ) ;
#112 = DIRECTION ( 'NONE',  ( -4.275831445896958607E-31, -1.000000000000000000, -1.224646799147353207E-16 ) ) ;
#113 = CARTESIAN_POINT ( 'NONE',  ( 8.728703347107833388E-14, -3.035766082959412415E-15, 25.00000000000000000 ) ) ;
#114 = DIRECTION ( 'NONE',  ( 0.0000000000000000000, 1.000000000000000000, 0.0000000000000000000 ) ) ;
#115 = CIRCLE ( 'NONE', #190, 1.500000000000000000 ) ;
#116 = CARTESIAN_POINT ( 'NONE',  ( 8.728703347107833388E-14, 1.399999999999996803, 25.00000000000000000 ) ) ;
#117 = CARTESIAN_POINT ( 'NONE',  ( 0.0000000000000000000, 0.0000000000000000000, 0.0000000000000000000 ) ) ;
#118 = FACE_BOUND ( 'NONE', #243, .T. ) ;
#119 = DIRECTION ( 'NONE',  ( -3.851859888774475209E-31, -1.000000000000000000, -1.084202172485505420E-16 ) ) ;
#120 = PERSON_AND_ORGANIZATION_ROLE ( 'design_owner' ) ;
#121 = EDGE_LOOP ( 'NONE', ( #105 ) ) ;
#122 =( NAMED_UNIT ( * ) SI_UNIT ( $, .STERADIAN. ) SOLID_ANGLE_UNIT ( ) );
#123 = ORIENTED_EDGE ( 'NONE', *, *, #88, .F. ) ;
#124 = AXIS2_PLACEMENT_3D ( 'NONE', #117, #142, #69 ) ;
#125 = PERSON_AND_ORGANIZATION ( #14, #299 ) ;
#126 = EDGE_LOOP ( 'NONE', ( #287 ) ) ;
#127 = ORIENTED_EDGE ( 'NONE', *, *, #100, .F. ) ;
#128 = PRODUCT_DEFINITION ( 'UNKNOWN', '', #37, #237 ) ;
#129 = APPROVAL_DATE_TIME ( #144, #75 ) ;
#130 = ORIENTED_EDGE ( 'NONE', *, *, #302, .F. ) ;
#131 = CARTESIAN_POINT ( 'NONE',  ( 8.849961221477468513E-14, -3.104148534859896361E-15, 25.34729635533384240 ) ) ;
#132 = DIRECTION ( 'NONE',  ( -4.275831445896958607E-31, -1.000000000000000000, -1.224646799147353207E-16 ) ) ;
#133 = PLANE ( 'NONE',  #149 ) ;
#134 = CIRCLE ( 'NONE', #214, 1.500000000000000000 ) ;
#135 = CARTESIAN_POINT ( 'NONE',  ( 0.0000000000000000000, 0.0000000000000000000, 0.0000000000000000000 ) ) ;
#136 = EDGE_CURVE ( 'NONE', #22, #22, #293, .T. ) ;
#137 = FACE_OUTER_BOUND ( 'NONE', #79, .T. ) ;
#138 = VERTEX_POINT ( 'NONE', #116 ) ;
#139 = VERTEX_POINT ( 'NONE', #234 ) ;
#140 = CARTESIAN_POINT ( 'NONE',  ( 8.987808100725203251E-14, -3.152498711492696494E-15, 25.74210550901360861 ) ) ;
#141 = PRODUCT_RELATED_PRODUCT_CATEGORY ( 'detail', '', ( #66 ) ) ;
#142 = DIRECTION ( 'NONE',  ( -3.491481338843133355E-15, 1.224646799147353207E-16, -1.000000000000000000 ) ) ;
#143 = CARTESIAN_POINT ( 'NONE',  ( 3.551955569568684704E-14, 1.399999999999997025, 10.17320508075689389 ) ) ;
#144 = DATE_AND_TIME ( #36, #89 ) ;
#145 = ORIENTED_EDGE ( 'NONE', *, *, #158, .T. ) ;
#146 = DATE_AND_TIME ( #265, #289 ) ;
#147 = ORIENTED_EDGE ( 'NONE', *, *, #88, .T. ) ;
#148 = ORIENTED_EDGE ( 'NONE', *, *, #78, .T. ) ;
#149 = AXIS2_PLACEMENT_3D ( 'NONE', #228, #90, #112 ) ;
#150 = DATE_AND_TIME ( #196, #184 ) ;
#151 = EDGE_LOOP ( 'NONE', ( #175 ) ) ;
#152 = ORIENTED_EDGE ( 'NONE', *, *, #54, .T. ) ;
#153 = DIRECTION ( 'NONE',  ( -3.491481338843133355E-15, 1.224646799147353207E-16, -1.000000000000000000 ) ) ;
#154 = APPLICATION_CONTEXT ( 'configuration controlled 3d designs of mechanical parts and assemblies' ) ;
#155 = FACE_OUTER_BOUND ( 'NONE', #121, .T. ) ;
#156 = DIRECTION ( 'NONE',  ( -3.491481338843133355E-15, 1.224646799147353207E-16, -1.000000000000000000 ) ) ;
#157 = FACE_OUTER_BOUND ( 'NONE', #109, .T. ) ;
#158 = EDGE_CURVE ( 'NONE', #96, #96, #97, .T. ) ;
#159 = AXIS2_PLACEMENT_3D ( 'NONE', #27, #279, #280 ) ;
#160 = AXIS2_PLACEMENT_3D ( 'NONE', #140, #257, #114 ) ;
#161 = FACE_BOUND ( 'NONE', #197, .T. ) ;
#162 = CARTESIAN_POINT ( 'NONE',  ( 8.728703347107827472E-16, -3.061616997868381169E-17, 0.2499999999999998335 ) ) ;
#163 = VERTEX_POINT ( 'NONE', #169 ) ;
#164 = AXIS2_PLACEMENT_3D ( 'NONE', #135, #20, #202 ) ;
#165 = CC_DESIGN_APPROVAL ( #303, ( #128 ) ) ;
#166 =( NAMED_UNIT ( * ) PLANE_ANGLE_UNIT ( ) SI_UNIT ( $, .RADIAN. ) );
#167 = DIRECTION ( 'NONE',  ( 4.275831445896958607E-31, 1.000000000000000000, 1.224646799147353207E-16 ) ) ;
#168 = UNCERTAINTY_MEASURE_WITH_UNIT (LENGTH_MEASURE( 1.000000000000000082E-05 ), #23, 'distance_accuracy_value', 'NONE');
#169 = CARTESIAN_POINT ( 'NONE',  ( 8.849961221477468513E-14, 1.430384493975577209, 25.34729635533384240 ) ) ;
#170 = COORDINATED_UNIVERSAL_TIME_OFFSET ( 1, 0, .AHEAD. ) ;
#171 = PERSON_AND_ORGANIZATION_ROLE ( 'design_supplier' ) ;
#172 = ORIENTED_EDGE ( 'NONE', *, *, #186, .T. ) ;
#173 = EDGE_LOOP ( 'NONE', ( #6 ) ) ;
#174 = PERSON_AND_ORGANIZATION_ROLE ( 'creator' ) ;
#175 = ORIENTED_EDGE ( 'NONE', *, *, #241, .F. ) ;
#176 = CIRCLE ( 'NONE', #160, 1.499999999999996003 ) ;
#177 = PERSON_AND_ORGANIZATION ( #14, #299 ) ;
#178 = EDGE_LOOP ( 'NONE', ( #145 ) ) ;
#179 = ADVANCED_FACE ( 'NONE', ( #294, #157 ), #110, .T. ) ;
#180 = FACE_OUTER_BOUND ( 'NONE', #173, .T. ) ;
#181 = CLOSED_SHELL ( 'NONE', ( #49, #281, #225, #61 ) ) ;
#182 = DIRECTION ( 'NONE',  ( -3.491481338843133355E-15, 1.224646799147353207E-16, -1.000000000000000000 ) ) ;
#183 = DIRECTION ( 'NONE',  ( -3.491481338843133355E-15, 1.224646799147353207E-16, -1.000000000000000000 ) ) ;
#184 = LOCAL_TIME ( 8, 17, 54.00000000000000000, #262 ) ;
#185 = DIRECTION ( 'NONE',  ( -3.491481338843133355E-15, 1.224646799147353207E-16, -1.000000000000000000 ) ) ;
#186 = EDGE_CURVE ( 'NONE', #4, #4, #134, .T. ) ;
#187 = FACE_OUTER_BOUND ( 'NONE', #30, .T. ) ;
#188 = CC_DESIGN_DATE_AND_TIME_ASSIGNMENT ( #150, #223, ( #128 ) ) ;
#189 = CARTESIAN_POINT ( 'NONE',  ( 2.444036937190193601E-13, 8.998558695971026591E-33, 70.00000000000000000 ) ) ;
#190 = AXIS2_PLACEMENT_3D ( 'NONE', #253, #62, #64 ) ;
#191 = CARTESIAN_POINT ( 'NONE',  ( 8.728703347107833388E-16, 1.499999999999998668, 0.2500000000000000000 ) ) ;
#192 = DIRECTION ( 'NONE',  ( -3.491481338843133355E-15, 1.224646799147353207E-16, -1.000000000000000000 ) ) ;
#193 = ADVANCED_FACE ( 'NONE', ( #68, #118 ), #102, .T. ) ;
#194 = APPROVAL_ROLE ( '' ) ;
#195 = AXIS2_PLACEMENT_3D ( 'NONE', #113, #41, #19 ) ;
#196 = CALENDAR_DATE ( 2021, 2, 12 ) ;
#197 = EDGE_LOOP ( 'NONE', ( #15 ) ) ;
#198 = APPROVAL_DATE_TIME ( #146, #303 ) ;
#199 = CARTESIAN_POINT ( 'NONE',  ( 3.491481338843133355E-14, 1.124819836996391290E-32, 10.00000000000000000 ) ) ;
#200 = CC_DESIGN_PERSON_AND_ORGANIZATION_ASSIGNMENT ( #106, #120, ( #66 ) ) ;
#201 = FACE_OUTER_BOUND ( 'NONE', #151, .T. ) ;
#202 = DIRECTION ( 'NONE',  ( 4.275831445896958607E-31, 1.000000000000000000, 1.224646799147353207E-16 ) ) ;
#203 = CONICAL_SURFACE ( 'NONE', #47, 1.499999999999996003, 0.1745329251994282016 ) ;
#204 = CC_DESIGN_SECURITY_CLASSIFICATION ( #77, ( #37 ) ) ;
#205 = EDGE_CURVE ( 'NONE', #99, #99, #176, .T. ) ;
#206 = DIRECTION ( 'NONE',  ( 0.0000000000000000000, 1.000000000000000000, 0.0000000000000000000 ) ) ;
#207 = CARTESIAN_POINT ( 'NONE',  ( 3.491481338843133355E-14, -1.224646799147353256E-15, 10.00000000000000000 ) ) ;
#208 = DIRECTION ( 'NONE',  ( 0.0000000000000000000, -1.000000000000000000, 0.0000000000000000000 ) ) ;
#209 = CC_DESIGN_APPROVAL ( #271, ( #37 ) ) ;
#210 = CYLINDRICAL_SURFACE ( 'NONE', #72, 1.499999999999998446 ) ;
#211 = CC_DESIGN_DATE_AND_TIME_ASSIGNMENT ( #12, #29, ( #77 ) ) ;
#212 = CARTESIAN_POINT ( 'NONE',  ( 2.444036937190193601E-13, 1.199999999999992628, 70.00000000000000000 ) ) ;
#213 = VERTEX_POINT ( 'NONE', #143 ) ;
#214 = AXIS2_PLACEMENT_3D ( 'NONE', #207, #183, #277 ) ;
#215 = DIRECTION ( 'NONE',  ( 3.491481338843133355E-15, -1.224646799147353207E-16, 1.000000000000000000 ) ) ;
#216 = PLANE ( 'NONE',  #93 ) ;
#217 = PERSON_AND_ORGANIZATION ( #14, #299 ) ;
#218 = PERSON_AND_ORGANIZATION ( #14, #299 ) ;
#219 = AXIS2_PLACEMENT_3D ( 'NONE', #131, #182, #91 ) ;
#220 = APPROVAL_PERSON_ORGANIZATION ( #218, #75, #249 ) ;
#221 = ORIENTED_EDGE ( 'NONE', *, *, #205, .F. ) ;
#222 = CC_DESIGN_PERSON_AND_ORGANIZATION_ASSIGNMENT ( #28, #267, ( #128 ) ) ;
#223 = DATE_TIME_ROLE ( 'creation_date' ) ;
#224 = FACE_OUTER_BOUND ( 'NONE', #272, .T. ) ;
#225 = ADVANCED_FACE ( 'NONE', ( #44, #259 ), #48, .T. ) ;
#226 = CARTESIAN_POINT ( 'NONE',  ( 8.728703347107827472E-16, -3.061616997868381169E-17, 0.2499999999999998335 ) ) ;
#227 = FACE_BOUND ( 'NONE', #264, .T. ) ;
#228 = CARTESIAN_POINT ( 'NONE',  ( 3.005812825463881875E-31, -1.054297216080807150E-32, 8.608990092611600029E-17 ) ) ;
#229 = APPROVAL_PERSON_ORGANIZATION ( #104, #303, #244 ) ;
#230 = CC_DESIGN_PERSON_AND_ORGANIZATION_ASSIGNMENT ( #56, #171, ( #37 ) ) ;
#231 = CARTESIAN_POINT ( 'NONE',  ( 2.433562493173664138E-13, -8.535788190057053710E-15, 69.70000000000001705 ) ) ;
#232 = VERTEX_POINT ( 'NONE', #212 ) ;
#233 = CONICAL_SURFACE ( 'NONE', #46, 1.499999999999998668, 0.7853981633974432830 ) ;
#234 = CARTESIAN_POINT ( 'NONE',  ( 3.491481338843133355E-14, 1.499999999999998668, 10.00000000000000000 ) ) ;
#235 = FACE_OUTER_BOUND ( 'NONE', #178, .T. ) ;
#236 = FACE_BOUND ( 'NONE', #126, .T. ) ;
#237 = DESIGN_CONTEXT ( 'detailed design', #248, 'design' ) ;
#238 = AXIS2_PLACEMENT_3D ( 'NONE', #284, #1, #301 ) ;
#239 = CARTESIAN_POINT ( 'NONE',  ( 1.135641495829896858E-30, 1.250000000000001554, 3.252606517456513302E-16 ) ) ;
#240 = SHAPE_DEFINITION_REPRESENTATION ( #276, #300 ) ;
#241 = EDGE_CURVE ( 'NONE', #138, #138, #13, .T. ) ;
#242 = CALENDAR_DATE ( 2021, 2, 12 ) ;
#243 = EDGE_LOOP ( 'NONE', ( #147 ) ) ;
#244 = APPROVAL_ROLE ( '' ) ;
#245 = APPROVAL_PERSON_ORGANIZATION ( #125, #271, #194 ) ;
#246 = EDGE_LOOP ( 'NONE', ( #55 ) ) ;
#247 = COORDINATED_UNIVERSAL_TIME_OFFSET ( 1, 0, .AHEAD. ) ;
#248 = APPLICATION_CONTEXT ( 'configuration controlled 3d designs of mechanical parts and assemblies' ) ;
#249 = APPROVAL_ROLE ( '' ) ;
#250 = DIRECTION ( 'NONE',  ( -3.491481338843133355E-15, 1.224646799147353207E-16, -1.000000000000000000 ) ) ;
#251 = LOCAL_TIME ( 8, 17, 54.00000000000000000, #270 ) ;
#252 = AXIS2_PLACEMENT_3D ( 'NONE', #231, #153, #206 ) ;
#253 = CARTESIAN_POINT ( 'NONE',  ( 3.491481338843133355E-14, -1.224646799147353256E-15, 10.00000000000000000 ) ) ;
#254 = DIRECTION ( 'NONE',  ( 3.491481338843133355E-15, -1.224646799147353207E-16, 1.000000000000000000 ) ) ;
#255 = MANIFOLD_SOLID_BREP ( 'Corps-Déplacer/Copier1[2]', #181 ) ;
#256 = FACE_OUTER_BOUND ( 'NONE', #269, .T. ) ;
#257 = DIRECTION ( 'NONE',  ( -3.491481338843133355E-15, 1.224646799147353207E-16, -1.000000000000000000 ) ) ;
#258 = AXIS2_PLACEMENT_3D ( 'NONE', #39, #86, #298 ) ;
#259 = FACE_OUTER_BOUND ( 'NONE', #266, .T. ) ;
#260 = VERTEX_POINT ( 'NONE', #50 ) ;
#261 = AXIS2_PLACEMENT_3D ( 'NONE', #76, #103, #10 ) ;
#262 = COORDINATED_UNIVERSAL_TIME_OFFSET ( 1, 0, .AHEAD. ) ;
#263 = APPLICATION_PROTOCOL_DEFINITION ( 'international standard', 'config_control_design', 1994, #248 ) ;
#264 = EDGE_LOOP ( 'NONE', ( #85 ) ) ;
#265 = CALENDAR_DATE ( 2021, 2, 12 ) ;
#266 = EDGE_LOOP ( 'NONE', ( #172 ) ) ;
#267 = PERSON_AND_ORGANIZATION_ROLE ( 'creator' ) ;
#268 = AXIS2_PLACEMENT_3D ( 'NONE', #226, #67, #16 ) ;
#269 = EDGE_LOOP ( 'NONE', ( #130 ) ) ;
#270 = COORDINATED_UNIVERSAL_TIME_OFFSET ( 1, 0, .AHEAD. ) ;
#271 = APPROVAL ( #52, 'UNSPECIFIED' ) ;
#272 = EDGE_LOOP ( 'NONE', ( #80 ) ) ;
#273 = DIRECTION ( 'NONE',  ( 0.0000000000000000000, 1.000000000000000000, 0.0000000000000000000 ) ) ;
#274 = CC_DESIGN_APPROVAL ( #75, ( #77 ) ) ;
#275 = CARTESIAN_POINT ( 'NONE',  ( 3.551955569568684704E-14, -1.245858303921851972E-15, 10.17320508075689389 ) ) ;
#276 = PRODUCT_DEFINITION_SHAPE ( 'NONE', 'NONE',  #128 ) ;
#277 = DIRECTION ( 'NONE',  ( 0.0000000000000000000, 1.000000000000000000, 0.0000000000000000000 ) ) ;
#278 = CIRCLE ( 'NONE', #238, 1.200000000000001510 ) ;
#279 = DIRECTION ( 'NONE',  ( -3.491481338843133355E-15, 1.224646799147353207E-16, -1.000000000000000000 ) ) ;
#280 = DIRECTION ( 'NONE',  ( 0.0000000000000000000, 1.000000000000000000, 0.0000000000000000000 ) ) ;
#281 = ADVANCED_FACE ( 'NONE', ( #236, #235 ), #233, .T. ) ;
#282 = CARTESIAN_POINT ( 'NONE',  ( 8.728703347107833388E-14, -3.061616997868383043E-15, 25.00000000000000000 ) ) ;
#283 = CARTESIAN_POINT ( 'NONE',  ( 3.491481338843133355E-14, 1.499999999999998668, 10.00000000000000000 ) ) ;
#284 = CARTESIAN_POINT ( 'NONE',  ( 2.444036937190193601E-13, -8.572527594031472993E-15, 70.00000000000000000 ) ) ;
#285 = APPLICATION_PROTOCOL_DEFINITION ( 'international standard', 'config_control_design', 1994, #154 ) ;
#286 = PERSON_AND_ORGANIZATION_ROLE ( 'classification_officer' ) ;
#287 = ORIENTED_EDGE ( 'NONE', *, *, #136, .F. ) ;
#288 = EDGE_LOOP ( 'NONE', ( #148 ) ) ;
#289 = LOCAL_TIME ( 8, 17, 54.00000000000000000, #170 ) ;
#290 = ORIENTED_EDGE ( 'NONE', *, *, #241, .T. ) ;
#291 = ADVANCED_FACE ( 'NONE', ( #256 ), #216, .F. ) ;
#292 = DIRECTION ( 'NONE',  ( 3.491481338843133355E-15, -1.224646799147353207E-16, 1.000000000000000000 ) ) ;
#293 = CIRCLE ( 'NONE', #58, 1.250000000000001554 ) ;
#294 = FACE_OUTER_BOUND ( 'NONE', #9, .T. ) ;
#295 = DIRECTION ( 'NONE',  ( 0.0000000000000000000, 1.000000000000000000, 0.0000000000000000000 ) ) ;
#296 = FACE_OUTER_BOUND ( 'NONE', #57, .T. ) ;
#297 = ADVANCED_FACE ( 'NONE', ( #187, #24 ), #210, .T. ) ;
#298 = DIRECTION ( 'NONE',  ( -4.275831445896958607E-31, -1.000000000000000000, -1.224646799147353207E-16 ) ) ;
#299 = ORGANIZATION ( 'UNSPECIFIED', 'UNSPECIFIED', '' ) ;
#300 = ADVANCED_BREP_SHAPE_REPRESENTATION ( '321526', ( #63, #255, #261 ), #108 ) ;
#301 = DIRECTION ( 'NONE',  ( 0.0000000000000000000, 1.000000000000000000, 0.0000000000000000000 ) ) ;
#302 = EDGE_CURVE ( 'NONE', #232, #232, #278, .T. ) ;
#303 = APPROVAL ( #32, 'UNSPECIFIED' ) ;
ENDSEC;
END-ISO-10303-21;
