ISO-10303-21;
HEADER;
FILE_DESCRIPTION (( 'STEP AP203' ),
    '1' );
FILE_NAME ('321525.step',
    '2021-12-02T07:17:53',
    ( '' ),
    ( '' ),
    'SwSTEP 2.0',
    'SolidWorks 2019',
    '' );
FILE_SCHEMA (( 'CONFIG_CONTROL_DESIGN' ));
ENDSEC;

DATA;
#1 = DIRECTION ( 'NONE',  ( -3.491481338843133355E-15, 1.224646799147353207E-16, -1.000000000000000000 ) ) ;
#2 = AXIS2_PLACEMENT_3D ( 'NONE', #85, #159, #111 ) ;
#3 = AXIS2_PLACEMENT_3D ( 'NONE', #282, #303, #199 ) ;
#4 = DIRECTION ( 'NONE',  ( -3.491481338843133355E-15, 1.224646799147353207E-16, -1.000000000000000000 ) ) ;
#5 = EDGE_CURVE ( 'NONE', #115, #115, #191, .T. ) ;
#6 = CYLINDRICAL_SURFACE ( 'NONE', #173, 1.499999999999998446 ) ;
#7 = CARTESIAN_POINT ( 'NONE',  ( 8.728703347107833388E-14, 1.399999999999996803, 25.00000000000000000 ) ) ;
#8 = CC_DESIGN_SECURITY_CLASSIFICATION ( #180, ( #28 ) ) ;
#9 = CIRCLE ( 'NONE', #2, 1.430384493975580318 ) ;
#10 = EDGE_CURVE ( 'NONE', #181, #181, #141, .T. ) ;
#11 = DIRECTION ( 'NONE',  ( 0.0000000000000000000, 1.000000000000000000, 0.0000000000000000000 ) ) ;
#12 = CARTESIAN_POINT ( 'NONE',  ( 0.0000000000000000000, 0.0000000000000000000, 0.0000000000000000000 ) ) ;
#13 = CIRCLE ( 'NONE', #93, 1.495000000000000107 ) ;
#14 = DIRECTION ( 'NONE',  ( 0.0000000000000000000, 0.0000000000000000000, 1.000000000000000000 ) ) ;
#15 = APPROVAL ( #94, 'UNSPECIFIED' ) ;
#16 = PERSON_AND_ORGANIZATION ( #72, #140 ) ;
#17 = EDGE_LOOP ( 'NONE', ( #25 ) ) ;
#18 = APPROVAL_PERSON_ORGANIZATION ( #16, #99, #253 ) ;
#19 = APPROVAL_ROLE ( '' ) ;
#20 = ORIENTED_EDGE ( 'NONE', *, *, #201, .T. ) ;
#21 = LOCAL_TIME ( 8, 17, 53.00000000000000000, #117 ) ;
#22 = CALENDAR_DATE ( 2021, 2, 12 ) ;
#23 = ORIENTED_EDGE ( 'NONE', *, *, #281, .T. ) ;
#24 = PERSON_AND_ORGANIZATION ( #72, #140 ) ;
#25 = ORIENTED_EDGE ( 'NONE', *, *, #278, .F. ) ;
#26 = FACE_OUTER_BOUND ( 'NONE', #45, .T. ) ;
#27 = CONICAL_SURFACE ( 'NONE', #272, 1.200000000000001510, 0.7853981633974566057 ) ;
#28 = PRODUCT_DEFINITION_FORMATION_WITH_SPECIFIED_SOURCE ( 'ANY', '', #68, .NOT_KNOWN. ) ;
#29 = CARTESIAN_POINT ( 'NONE',  ( 8.728703347107827472E-16, -3.061616997868381169E-17, 0.2499999999999998335 ) ) ;
#30 = DIRECTION ( 'NONE',  ( -3.491481338843133355E-15, 1.224646799147353207E-16, -1.000000000000000000 ) ) ;
#31 = ADVANCED_FACE ( 'NONE', ( #174, #284 ), #36, .T. ) ;
#32 = PLANE ( 'NONE',  #171 ) ;
#33 = DIRECTION ( 'NONE',  ( -3.491481338843133355E-15, 1.224646799147353207E-16, -1.000000000000000000 ) ) ;
#34 =( NAMED_UNIT ( * ) PLANE_ANGLE_UNIT ( ) SI_UNIT ( $, .RADIAN. ) );
#35 =( GEOMETRIC_REPRESENTATION_CONTEXT ( 3 ) GLOBAL_UNCERTAINTY_ASSIGNED_CONTEXT ( ( #76 ) ) GLOBAL_UNIT_ASSIGNED_CONTEXT ( ( #112, #34, #251 ) ) REPRESENTATION_CONTEXT ( 'NONE', 'WORKASPACE' ) );
#36 = CONICAL_SURFACE ( 'NONE', #3, 1.499999999999996003, 0.1745329251994282016 ) ;
#37 = CARTESIAN_POINT ( 'NONE',  ( 0.0000000000000000000, 0.0000000000000000000, 0.0000000000000000000 ) ) ;
#38 = VERTEX_POINT ( 'NONE', #178 ) ;
#39 = ADVANCED_FACE ( 'NONE', ( #50 ), #263, .F. ) ;
#40 = AXIS2_PLACEMENT_3D ( 'NONE', #124, #126, #75 ) ;
#41 = APPROVAL_STATUS ( 'not_yet_approved' ) ;
#42 = ORIENTED_EDGE ( 'NONE', *, *, #10, .F. ) ;
#43 = CC_DESIGN_APPROVAL ( #15, ( #180 ) ) ;
#44 = PERSON_AND_ORGANIZATION_ROLE ( 'design_supplier' ) ;
#45 = EDGE_LOOP ( 'NONE', ( #294 ) ) ;
#46 = CC_DESIGN_PERSON_AND_ORGANIZATION_ASSIGNMENT ( #255, #164, ( #107 ) ) ;
#47 = LOCAL_TIME ( 8, 17, 53.00000000000000000, #233 ) ;
#48 = DIRECTION ( 'NONE',  ( 3.491481338843133355E-15, -1.224646799147353207E-16, 1.000000000000000000 ) ) ;
#49 = FACE_BOUND ( 'NONE', #67, .T. ) ;
#50 = FACE_OUTER_BOUND ( 'NONE', #17, .T. ) ;
#51 = DIRECTION ( 'NONE',  ( 0.0000000000000000000, 1.000000000000000000, 0.0000000000000000000 ) ) ;
#52 = FACE_OUTER_BOUND ( 'NONE', #143, .T. ) ;
#53 = MANIFOLD_SOLID_BREP ( 'Corps-Déplacer/Copier1[1]', #198 ) ;
#54 = FACE_OUTER_BOUND ( 'NONE', #217, .T. ) ;
#55 = CYLINDRICAL_SURFACE ( 'NONE', #103, 1.399999999999998801 ) ;
#56 = CC_DESIGN_APPROVAL ( #240, ( #28 ) ) ;
#57 = AXIS2_PLACEMENT_3D ( 'NONE', #270, #160, #249 ) ;
#58 = MANIFOLD_SOLID_BREP ( 'Corps-Déplacer/Copier1[2]', #228 ) ;
#59 = VERTEX_POINT ( 'NONE', #231 ) ;
#60 = CYLINDRICAL_SURFACE ( 'NONE', #147, 1.494999999999999440 ) ;
#61 = EDGE_CURVE ( 'NONE', #132, #132, #300, .T. ) ;
#62 = CALENDAR_DATE ( 2021, 2, 12 ) ;
#63 = CALENDAR_DATE ( 2021, 2, 12 ) ;
#64 = CALENDAR_DATE ( 2021, 2, 12 ) ;
#65 = ORIENTED_EDGE ( 'NONE', *, *, #92, .T. ) ;
#66 = DATE_AND_TIME ( #62, #21 ) ;
#67 = EDGE_LOOP ( 'NONE', ( #123 ) ) ;
#68 = PRODUCT ( '321525', '321525', '', ( #69 ) ) ;
#69 = MECHANICAL_CONTEXT ( 'NONE', #113, 'mechanical' ) ;
#70 = ORIENTED_EDGE ( 'NONE', *, *, #61, .T. ) ;
#71 = AXIS2_PLACEMENT_3D ( 'NONE', #280, #4, #196 ) ;
#72 = PERSON ( 'UNSPECIFIED', 'UNSPECIFIED', 'UNSPECIFIED', ('UNSPECIFIED'), ('UNSPECIFIED'), ('UNSPECIFIED') ) ;
#73 = FACE_BOUND ( 'NONE', #296, .T. ) ;
#74 = LOCAL_TIME ( 8, 17, 53.00000000000000000, #239 ) ;
#75 = DIRECTION ( 'NONE',  ( 4.275831445896959482E-31, 1.000000000000000000, 1.224646799147353454E-16 ) ) ;
#76 = UNCERTAINTY_MEASURE_WITH_UNIT (LENGTH_MEASURE( 1.000000000000000082E-05 ), #112, 'distance_accuracy_value', 'NONE');
#77 = DIRECTION ( 'NONE',  ( -3.491481338843133355E-15, 1.224646799147353207E-16, -1.000000000000000000 ) ) ;
#78 = CARTESIAN_POINT ( 'NONE',  ( 3.491481338843133355E-14, -1.224646799147353256E-15, 10.00000000000000000 ) ) ;
#79 = FACE_OUTER_BOUND ( 'NONE', #210, .T. ) ;
#80 = ADVANCED_FACE ( 'NONE', ( #52 ), #221, .F. ) ;
#81 = VERTEX_POINT ( 'NONE', #177 ) ;
#82 = CARTESIAN_POINT ( 'NONE',  ( 3.548931858032406569E-14, -1.244797728683126927E-15, 10.16454482671904813 ) ) ;
#83 = CARTESIAN_POINT ( 'NONE',  ( 8.728703347107833388E-14, -3.035766082959412415E-15, 25.00000000000000000 ) ) ;
#84 = AXIS2_PLACEMENT_3D ( 'NONE', #299, #14, #119 ) ;
#85 = CARTESIAN_POINT ( 'NONE',  ( 8.849961221477468513E-14, -3.104148534859896361E-15, 25.34729635533384240 ) ) ;
#86 = ADVANCED_FACE ( 'NONE', ( #79 ), #128, .T. ) ;
#87 = PRODUCT_DEFINITION_SHAPE ( 'NONE', 'NONE',  #107 ) ;
#88 = FACE_OUTER_BOUND ( 'NONE', #257, .T. ) ;
#89 = PERSON_AND_ORGANIZATION_ROLE ( 'design_owner' ) ;
#90 = EDGE_LOOP ( 'NONE', ( #185 ) ) ;
#91 = CIRCLE ( 'NONE', #250, 1.495000000000000107 ) ;
#92 = EDGE_CURVE ( 'NONE', #59, #59, #154, .T. ) ;
#93 = AXIS2_PLACEMENT_3D ( 'NONE', #78, #77, #301 ) ;
#94 = APPROVAL_STATUS ( 'not_yet_approved' ) ;
#95 = EDGE_LOOP ( 'NONE', ( #20 ) ) ;
#96 = PERSON_AND_ORGANIZATION ( #72, #140 ) ;
#97 = EDGE_LOOP ( 'NONE', ( #188 ) ) ;
#98 = PERSON_AND_ORGANIZATION ( #72, #140 ) ;
#99 = APPROVAL ( #184, 'UNSPECIFIED' ) ;
#100 = DIRECTION ( 'NONE',  ( 0.0000000000000000000, 1.000000000000000000, 0.0000000000000000000 ) ) ;
#101 = APPLICATION_CONTEXT ( 'configuration controlled 3d designs of mechanical parts and assemblies' ) ;
#102 = CARTESIAN_POINT ( 'NONE',  ( 2.444036937190193601E-13, 8.998558695971026591E-33, 70.00000000000000000 ) ) ;
#103 = AXIS2_PLACEMENT_3D ( 'NONE', #12, #252, #204 ) ;
#104 = CARTESIAN_POINT ( 'NONE',  ( 8.987808100725203251E-14, -3.152498711492696494E-15, 25.74210550901360861 ) ) ;
#105 = DIRECTION ( 'NONE',  ( 0.0000000000000000000, 1.000000000000000000, 0.0000000000000000000 ) ) ;
#106 = CARTESIAN_POINT ( 'NONE',  ( 0.0000000000000000000, 0.0000000000000000000, 0.0000000000000000000 ) ) ;
#107 = PRODUCT_DEFINITION ( 'UNKNOWN', '', #28, #285 ) ;
#108 = CARTESIAN_POINT ( 'NONE',  ( 0.0000000000000000000, 1.245000000000001217, 0.0000000000000000000 ) ) ;
#109 = AXIS2_PLACEMENT_3D ( 'NONE', #260, #175, #245 ) ;
#110 = CARTESIAN_POINT ( 'NONE',  ( 3.491481338843133355E-14, -1.224646799147353256E-15, 10.00000000000000000 ) ) ;
#111 = DIRECTION ( 'NONE',  ( 0.0000000000000000000, 1.000000000000000000, 0.0000000000000000000 ) ) ;
#112 =( LENGTH_UNIT ( ) NAMED_UNIT ( * ) SI_UNIT ( .MILLI., .METRE. ) );
#113 = APPLICATION_CONTEXT ( 'configuration controlled 3d designs of mechanical parts and assemblies' ) ;
#114 = AXIS2_PLACEMENT_3D ( 'NONE', #152, #48, #151 ) ;
#115 = VERTEX_POINT ( 'NONE', #7 ) ;
#116 = EDGE_CURVE ( 'NONE', #290, #290, #13, .T. ) ;
#117 = COORDINATED_UNIVERSAL_TIME_OFFSET ( 1, 0, .AHEAD. ) ;
#118 = ORIENTED_EDGE ( 'NONE', *, *, #232, .F. ) ;
#119 = DIRECTION ( 'NONE',  ( 1.000000000000000000, 0.0000000000000000000, 0.0000000000000000000 ) ) ;
#120 = EDGE_LOOP ( 'NONE', ( #23 ) ) ;
#121 = SHAPE_DEFINITION_REPRESENTATION ( #87, #230 ) ;
#122 = ADVANCED_FACE ( 'NONE', ( #264, #49 ), #27, .T. ) ;
#123 = ORIENTED_EDGE ( 'NONE', *, *, #278, .T. ) ;
#124 = CARTESIAN_POINT ( 'NONE',  ( -5.323410150141719237E-31, 1.867200929414014857E-32, -1.524685264938456420E-16 ) ) ;
#125 = CC_DESIGN_APPROVAL ( #99, ( #107 ) ) ;
#126 = DIRECTION ( 'NONE',  ( -3.491481338843133355E-15, 1.224646799147353207E-16, -1.000000000000000000 ) ) ;
#127 = FACE_OUTER_BOUND ( 'NONE', #168, .T. ) ;
#128 = PLANE ( 'NONE',  #114 ) ;
#129 = DIRECTION ( 'NONE',  ( -4.275831445896958607E-31, -1.000000000000000000, -1.224646799147353207E-16 ) ) ;
#130 = CC_DESIGN_DATE_AND_TIME_ASSIGNMENT ( #189, #297, ( #180 ) ) ;
#131 = DIRECTION ( 'NONE',  ( 4.275831445896958607E-31, 1.000000000000000000, 1.224646799147353207E-16 ) ) ;
#132 = VERTEX_POINT ( 'NONE', #108 ) ;
#133 = VERTEX_POINT ( 'NONE', #229 ) ;
#134 = PRODUCT_RELATED_PRODUCT_CATEGORY ( 'detail', '', ( #68 ) ) ;
#135 = DIRECTION ( 'NONE',  ( -3.491481338843133355E-15, 1.224646799147353207E-16, -1.000000000000000000 ) ) ;
#136 = AXIS2_PLACEMENT_3D ( 'NONE', #279, #241, #287 ) ;
#137 = PERSON_AND_ORGANIZATION ( #72, #140 ) ;
#138 = EDGE_LOOP ( 'NONE', ( #169 ) ) ;
#139 = APPLICATION_PROTOCOL_DEFINITION ( 'international standard', 'config_control_design', 1994, #113 ) ;
#140 = ORGANIZATION ( 'UNSPECIFIED', 'UNSPECIFIED', '' ) ;
#141 = CIRCLE ( 'NONE', #71, 1.399999999999998357 ) ;
#142 = PERSON_AND_ORGANIZATION_ROLE ( 'classification_officer' ) ;
#143 = EDGE_LOOP ( 'NONE', ( #70 ) ) ;
#144 = ADVANCED_FACE ( 'NONE', ( #73, #26 ), #295, .T. ) ;
#145 = COORDINATED_UNIVERSAL_TIME_OFFSET ( 1, 0, .AHEAD. ) ;
#146 = ORIENTED_EDGE ( 'NONE', *, *, #281, .F. ) ;
#147 = AXIS2_PLACEMENT_3D ( 'NONE', #37, #227, #269 ) ;
#148 = EDGE_CURVE ( 'NONE', #38, #38, #262, .T. ) ;
#149 = DIRECTION ( 'NONE',  ( -3.491481338843133355E-15, 1.224646799147353207E-16, -1.000000000000000000 ) ) ;
#150 = AXIS2_PLACEMENT_3D ( 'NONE', #265, #149, #247 ) ;
#151 = DIRECTION ( 'NONE',  ( -4.275831445896958607E-31, -1.000000000000000000, -1.224646799147353207E-16 ) ) ;
#152 = CARTESIAN_POINT ( 'NONE',  ( 3.491481338843133355E-14, 1.121070437539736619E-32, 10.00000000000000000 ) ) ;
#153 = DIRECTION ( 'NONE',  ( -3.864742363318871242E-31, -1.000000000000000000, -1.087828266707864912E-16 ) ) ;
#154 = CIRCLE ( 'NONE', #219, 1.500000000000001110 ) ;
#155 = CC_DESIGN_PERSON_AND_ORGANIZATION_ASSIGNMENT ( #96, #89, ( #68 ) ) ;
#156 = FACE_OUTER_BOUND ( 'NONE', #193, .T. ) ;
#157 = AXIS2_PLACEMENT_3D ( 'NONE', #104, #203, #100 ) ;
#158 = ADVANCED_FACE ( 'NONE', ( #127 ), #32, .F. ) ;
#159 = DIRECTION ( 'NONE',  ( -3.491481338843133355E-15, 1.224646799147353207E-16, -1.000000000000000000 ) ) ;
#160 = DIRECTION ( 'NONE',  ( -3.491481338843133355E-15, 1.224646799147353207E-16, -1.000000000000000000 ) ) ;
#161 = PERSON_AND_ORGANIZATION ( #72, #140 ) ;
#162 = LOCAL_TIME ( 8, 17, 53.00000000000000000, #145 ) ;
#163 = ORIENTED_EDGE ( 'NONE', *, *, #10, .T. ) ;
#164 = PERSON_AND_ORGANIZATION_ROLE ( 'creator' ) ;
#165 = APPROVAL_DATE_TIME ( #66, #240 ) ;
#166 = EDGE_LOOP ( 'NONE', ( #163 ) ) ;
#167 = SECURITY_CLASSIFICATION_LEVEL ( 'unclassified' ) ;
#168 = EDGE_LOOP ( 'NONE', ( #218 ) ) ;
#169 = ORIENTED_EDGE ( 'NONE', *, *, #92, .F. ) ;
#170 = FACE_OUTER_BOUND ( 'NONE', #120, .T. ) ;
#171 = AXIS2_PLACEMENT_3D ( 'NONE', #220, #266, #129 ) ;
#172 = CARTESIAN_POINT ( 'NONE',  ( 2.433562493173664138E-13, -8.535788190057053710E-15, 69.70000000000001705 ) ) ;
#173 = AXIS2_PLACEMENT_3D ( 'NONE', #106, #1, #243 ) ;
#174 = FACE_BOUND ( 'NONE', #238, .T. ) ;
#175 = DIRECTION ( 'NONE',  ( 3.491481338843133355E-15, -1.224646799147353207E-16, 1.000000000000000000 ) ) ;
#176 = DIRECTION ( 'NONE',  ( 3.491481338843133355E-15, -1.224646799147353207E-16, 1.000000000000000000 ) ) ;
#177 = CARTESIAN_POINT ( 'NONE',  ( 8.849961221477468513E-14, 1.430384493975577209, 25.34729635533384240 ) ) ;
#178 = CARTESIAN_POINT ( 'NONE',  ( 8.728703347107833388E-16, 1.494999999999998774, 0.2500000000000000000 ) ) ;
#179 = DIRECTION ( 'NONE',  ( 0.0000000000000000000, 1.000000000000000000, 0.0000000000000000000 ) ) ;
#180 = SECURITY_CLASSIFICATION ( '', '', #167 ) ;
#181 = VERTEX_POINT ( 'NONE', #207 ) ;
#182 = CARTESIAN_POINT ( 'NONE',  ( 3.491481338843133355E-14, 1.494999999999998774, 10.00000000000000000 ) ) ;
#183 = CC_DESIGN_PERSON_AND_ORGANIZATION_ASSIGNMENT ( #24, #216, ( #28 ) ) ;
#184 = APPROVAL_STATUS ( 'not_yet_approved' ) ;
#185 = ORIENTED_EDGE ( 'NONE', *, *, #201, .F. ) ;
#186 = AXIS2_PLACEMENT_3D ( 'NONE', #82, #135, #11 ) ;
#187 = DATE_AND_TIME ( #271, #162 ) ;
#188 = ORIENTED_EDGE ( 'NONE', *, *, #148, .F. ) ;
#189 = DATE_AND_TIME ( #63, #47 ) ;
#190 = EDGE_LOOP ( 'NONE', ( #65 ) ) ;
#191 = CIRCLE ( 'NONE', #136, 1.399999999999999689 ) ;
#192 = DATE_AND_TIME ( #64, #74 ) ;
#193 = EDGE_LOOP ( 'NONE', ( #234 ) ) ;
#194 = ADVANCED_FACE ( 'NONE', ( #224, #222 ), #6, .T. ) ;
#195 = FACE_OUTER_BOUND ( 'NONE', #97, .T. ) ;
#196 = DIRECTION ( 'NONE',  ( 0.0000000000000000000, 1.000000000000000000, 0.0000000000000000000 ) ) ;
#197 = APPROVAL_PERSON_ORGANIZATION ( #98, #240, #275 ) ;
#198 = CLOSED_SHELL ( 'NONE', ( #158, #214, #235, #226, #31, #194, #122, #39 ) ) ;
#199 = DIRECTION ( 'NONE',  ( 0.0000000000000000000, -1.000000000000000000, 0.0000000000000000000 ) ) ;
#200 = APPROVAL_PERSON_ORGANIZATION ( #293, #15, #19 ) ;
#201 = EDGE_CURVE ( 'NONE', #289, #289, #283, .T. ) ;
#202 = DIRECTION ( 'NONE',  ( 4.275831445896958607E-31, 1.000000000000000000, 1.224646799147353207E-16 ) ) ;
#203 = DIRECTION ( 'NONE',  ( -3.491481338843133355E-15, 1.224646799147353207E-16, -1.000000000000000000 ) ) ;
#204 = DIRECTION ( 'NONE',  ( 4.275831445896958607E-31, 1.000000000000000000, 1.224646799147353207E-16 ) ) ;
#205 = CARTESIAN_POINT ( 'NONE',  ( 8.987808100725203251E-14, 1.499999999999992673, 25.74210550901360861 ) ) ;
#206 = FACE_BOUND ( 'NONE', #166, .T. ) ;
#207 = CARTESIAN_POINT ( 'NONE',  ( 3.548931858032406569E-14, 1.399999999999997025, 10.16454482671904813 ) ) ;
#208 = FACE_OUTER_BOUND ( 'NONE', #274, .T. ) ;
#209 = ADVANCED_FACE ( 'NONE', ( #195, #170 ), #60, .T. ) ;
#210 = EDGE_LOOP ( 'NONE', ( #146 ) ) ;
#211 = DATE_TIME_ROLE ( 'creation_date' ) ;
#212 = ORIENTED_EDGE ( 'NONE', *, *, #5, .T. ) ;
#213 = AXIS2_PLACEMENT_3D ( 'NONE', #29, #176, #153 ) ;
#214 = ADVANCED_FACE ( 'NONE', ( #248, #206 ), #261, .T. ) ;
#215 = APPLICATION_PROTOCOL_DEFINITION ( 'international standard', 'config_control_design', 1994, #101 ) ;
#216 = PERSON_AND_ORGANIZATION_ROLE ( 'creator' ) ;
#217 = EDGE_LOOP ( 'NONE', ( #212 ) ) ;
#218 = ORIENTED_EDGE ( 'NONE', *, *, #116, .T. ) ;
#219 = AXIS2_PLACEMENT_3D ( 'NONE', #172, #223, #51 ) ;
#220 = CARTESIAN_POINT ( 'NONE',  ( 3.491481338843133355E-14, 1.121070437539736619E-32, 10.00000000000000000 ) ) ;
#221 = PLANE ( 'NONE',  #109 ) ;
#222 = FACE_OUTER_BOUND ( 'NONE', #190, .T. ) ;
#223 = DIRECTION ( 'NONE',  ( -3.491481338843133355E-15, 1.224646799147353207E-16, -1.000000000000000000 ) ) ;
#224 = FACE_OUTER_BOUND ( 'NONE', #90, .T. ) ;
#225 = DIRECTION ( 'NONE',  ( -3.491481338843133355E-15, 1.224646799147353207E-16, -1.000000000000000000 ) ) ;
#226 = ADVANCED_FACE ( 'NONE', ( #156, #88 ), #292, .F. ) ;
#227 = DIRECTION ( 'NONE',  ( -3.491481338843133355E-15, 1.224646799147353207E-16, -1.000000000000000000 ) ) ;
#228 = CLOSED_SHELL ( 'NONE', ( #80, #144, #209, #86 ) ) ;
#229 = CARTESIAN_POINT ( 'NONE',  ( 2.444036937190193601E-13, 1.199999999999992628, 70.00000000000000000 ) ) ;
#230 = ADVANCED_BREP_SHAPE_REPRESENTATION ( '321525', ( #53, #58, #84 ), #35 ) ;
#231 = CARTESIAN_POINT ( 'NONE',  ( 2.433562493173664138E-13, 1.499999999999992673, 69.70000000000001705 ) ) ;
#232 = EDGE_CURVE ( 'NONE', #81, #81, #9, .T. ) ;
#233 = COORDINATED_UNIVERSAL_TIME_OFFSET ( 1, 0, .AHEAD. ) ;
#234 = ORIENTED_EDGE ( 'NONE', *, *, #5, .F. ) ;
#235 = ADVANCED_FACE ( 'NONE', ( #208, #54 ), #55, .T. ) ;
#236 = APPROVAL_DATE_TIME ( #192, #99 ) ;
#237 = COORDINATED_UNIVERSAL_TIME_OFFSET ( 1, 0, .AHEAD. ) ;
#238 = EDGE_LOOP ( 'NONE', ( #118 ) ) ;
#239 = COORDINATED_UNIVERSAL_TIME_OFFSET ( 1, 0, .AHEAD. ) ;
#240 = APPROVAL ( #41, 'UNSPECIFIED' ) ;
#241 = DIRECTION ( 'NONE',  ( -3.491481338843133355E-15, 1.224646799147353207E-16, -1.000000000000000000 ) ) ;
#242 = AXIS2_PLACEMENT_3D ( 'NONE', #83, #33, #131 ) ;
#243 = DIRECTION ( 'NONE',  ( 4.275831445896958607E-31, 1.000000000000000000, 1.224646799147353207E-16 ) ) ;
#244 = DIRECTION ( 'NONE',  ( -3.491481338843133355E-15, 1.224646799147353207E-16, -1.000000000000000000 ) ) ;
#245 = DIRECTION ( 'NONE',  ( -4.275831445896958607E-31, -1.000000000000000000, -1.224646799147353207E-16 ) ) ;
#246 = AXIS2_PLACEMENT_3D ( 'NONE', #102, #30, #202 ) ;
#247 = DIRECTION ( 'NONE',  ( 3.864742363318871242E-31, 1.000000000000000000, 1.087828266707864912E-16 ) ) ;
#248 = FACE_OUTER_BOUND ( 'NONE', #256, .T. ) ;
#249 = DIRECTION ( 'NONE',  ( 0.0000000000000000000, 1.000000000000000000, 0.0000000000000000000 ) ) ;
#250 = AXIS2_PLACEMENT_3D ( 'NONE', #110, #225, #179 ) ;
#251 =( NAMED_UNIT ( * ) SI_UNIT ( $, .STERADIAN. ) SOLID_ANGLE_UNIT ( ) );
#252 = DIRECTION ( 'NONE',  ( -3.491481338843133355E-15, 1.224646799147353207E-16, -1.000000000000000000 ) ) ;
#253 = APPROVAL_ROLE ( '' ) ;
#254 = CIRCLE ( 'NONE', #57, 1.200000000000001510 ) ;
#255 = PERSON_AND_ORGANIZATION ( #72, #140 ) ;
#256 = EDGE_LOOP ( 'NONE', ( #298 ) ) ;
#257 = EDGE_LOOP ( 'NONE', ( #276 ) ) ;
#258 = ORIENTED_EDGE ( 'NONE', *, *, #61, .F. ) ;
#259 = APPROVAL_DATE_TIME ( #277, #15 ) ;
#260 = CARTESIAN_POINT ( 'NONE',  ( -2.661705075070859618E-31, 9.336004647070074283E-33, -7.623426324692282102E-17 ) ) ;
#261 = CONICAL_SURFACE ( 'NONE', #186, 1.399999999999998357, 0.5235987755982940417 ) ;
#262 = CIRCLE ( 'NONE', #150, 1.494999999999998774 ) ;
#263 = PLANE ( 'NONE',  #246 ) ;
#264 = FACE_OUTER_BOUND ( 'NONE', #138, .T. ) ;
#265 = CARTESIAN_POINT ( 'NONE',  ( 8.728703347107827472E-16, -3.061616997868381169E-17, 0.2499999999999998335 ) ) ;
#266 = DIRECTION ( 'NONE',  ( 3.491481338843133355E-15, -1.224646799147353207E-16, 1.000000000000000000 ) ) ;
#267 = CARTESIAN_POINT ( 'NONE',  ( 3.491481338843133355E-14, 1.494999999999998774, 10.00000000000000000 ) ) ;
#268 = VERTEX_POINT ( 'NONE', #267 ) ;
#269 = DIRECTION ( 'NONE',  ( 4.275831445896958607E-31, 1.000000000000000000, 1.224646799147353207E-16 ) ) ;
#270 = CARTESIAN_POINT ( 'NONE',  ( 2.444036937190193601E-13, -8.572527594031472993E-15, 70.00000000000000000 ) ) ;
#271 = CALENDAR_DATE ( 2021, 2, 12 ) ;
#272 = AXIS2_PLACEMENT_3D ( 'NONE', #286, #244, #105 ) ;
#273 = LOCAL_TIME ( 8, 17, 53.00000000000000000, #237 ) ;
#274 = EDGE_LOOP ( 'NONE', ( #42 ) ) ;
#275 = APPROVAL_ROLE ( '' ) ;
#276 = ORIENTED_EDGE ( 'NONE', *, *, #232, .T. ) ;
#277 = DATE_AND_TIME ( #22, #273 ) ;
#278 = EDGE_CURVE ( 'NONE', #133, #133, #254, .T. ) ;
#279 = CARTESIAN_POINT ( 'NONE',  ( 8.728703347107833388E-14, -3.061616997868383043E-15, 25.00000000000000000 ) ) ;
#280 = CARTESIAN_POINT ( 'NONE',  ( 3.548931858032406569E-14, -1.244797728683126927E-15, 10.16454482671904813 ) ) ;
#281 = EDGE_CURVE ( 'NONE', #268, #268, #91, .T. ) ;
#282 = CARTESIAN_POINT ( 'NONE',  ( 8.987808100725203251E-14, -3.152498711492696494E-15, 25.74210550901360861 ) ) ;
#283 = CIRCLE ( 'NONE', #157, 1.499999999999996003 ) ;
#284 = FACE_OUTER_BOUND ( 'NONE', #95, .T. ) ;
#285 = DESIGN_CONTEXT ( 'detailed design', #101, 'design' ) ;
#286 = CARTESIAN_POINT ( 'NONE',  ( 2.444036937190193601E-13, -8.572527594031472993E-15, 70.00000000000000000 ) ) ;
#287 = DIRECTION ( 'NONE',  ( 0.0000000000000000000, 1.000000000000000000, 0.0000000000000000000 ) ) ;
#288 = CC_DESIGN_DATE_AND_TIME_ASSIGNMENT ( #187, #211, ( #107 ) ) ;
#289 = VERTEX_POINT ( 'NONE', #205 ) ;
#290 = VERTEX_POINT ( 'NONE', #182 ) ;
#291 = CC_DESIGN_PERSON_AND_ORGANIZATION_ASSIGNMENT ( #137, #142, ( #180 ) ) ;
#292 = TOROIDAL_SURFACE ( 'NONE', #242, 3.399999999999999911, 2.000000000000000000 ) ;
#293 = PERSON_AND_ORGANIZATION ( #72, #140 ) ;
#294 = ORIENTED_EDGE ( 'NONE', *, *, #148, .T. ) ;
#295 = CONICAL_SURFACE ( 'NONE', #213, 1.494999999999998774, 0.7853981633974430610 ) ;
#296 = EDGE_LOOP ( 'NONE', ( #258 ) ) ;
#297 = DATE_TIME_ROLE ( 'classification_date' ) ;
#298 = ORIENTED_EDGE ( 'NONE', *, *, #116, .F. ) ;
#299 = CARTESIAN_POINT ( 'NONE',  ( 0.0000000000000000000, 0.0000000000000000000, 0.0000000000000000000 ) ) ;
#300 = CIRCLE ( 'NONE', #40, 1.245000000000001217 ) ;
#301 = DIRECTION ( 'NONE',  ( 0.0000000000000000000, 1.000000000000000000, 0.0000000000000000000 ) ) ;
#302 = CC_DESIGN_PERSON_AND_ORGANIZATION_ASSIGNMENT ( #161, #44, ( #28 ) ) ;
#303 = DIRECTION ( 'NONE',  ( 3.491481338843133355E-15, -1.224646799147353207E-16, 1.000000000000000000 ) ) ;
ENDSEC;
END-ISO-10303-21;
