ISO-10303-21;
HEADER;
FILE_DESCRIPTION (( 'STEP AP203' ),
    '1' );
FILE_NAME ('321524.step',
    '2021-12-02T07:17:53',
    ( '' ),
    ( '' ),
    'SwSTEP 2.0',
    'SolidWorks 2019',
    '' );
FILE_SCHEMA (( 'CONFIG_CONTROL_DESIGN' ));
ENDSEC;

DATA;
#1 = APPROVAL_STATUS ( 'not_yet_approved' ) ;
#2 = EDGE_LOOP ( 'NONE', ( #135 ) ) ;
#3 = EDGE_LOOP ( 'NONE', ( #239 ) ) ;
#4 = APPROVAL_ROLE ( '' ) ;
#5 = ORIENTED_EDGE ( 'NONE', *, *, #32, .F. ) ;
#6 = ORIENTED_EDGE ( 'NONE', *, *, #303, .T. ) ;
#7 = DIRECTION ( 'NONE',  ( 0.0000000000000000000, 1.000000000000000000, 0.0000000000000000000 ) ) ;
#8 = EDGE_CURVE ( 'NONE', #201, #201, #198, .T. ) ;
#9 = PRODUCT_DEFINITION ( 'UNKNOWN', '', #129, #253 ) ;
#10 = DIRECTION ( 'NONE',  ( 3.491481338843133355E-15, -1.224646799147353207E-16, 1.000000000000000000 ) ) ;
#11 = CARTESIAN_POINT ( 'NONE',  ( -5.302030992912235398E-31, 1.859702130500706061E-32, -1.518562030942720038E-16 ) ) ;
#12 = AXIS2_PLACEMENT_3D ( 'NONE', #224, #10, #105 ) ;
#13 = DIRECTION ( 'NONE',  ( -4.275831445896958607E-31, -1.000000000000000000, -1.224646799147353207E-16 ) ) ;
#14 = CARTESIAN_POINT ( 'NONE',  ( 0.0000000000000000000, 0.0000000000000000000, 0.0000000000000000000 ) ) ;
#15 = FACE_BOUND ( 'NONE', #160, .T. ) ;
#16 = DIRECTION ( 'NONE',  ( -3.491481338843133355E-15, 1.224646799147353207E-16, -1.000000000000000000 ) ) ;
#17 = EDGE_CURVE ( 'NONE', #87, #87, #300, .T. ) ;
#18 = PLANE ( 'NONE',  #147 ) ;
#19 = UNCERTAINTY_MEASURE_WITH_UNIT (LENGTH_MEASURE( 1.000000000000000082E-05 ), #273, 'distance_accuracy_value', 'NONE');
#20 = APPROVAL_DATE_TIME ( #240, #127 ) ;
#21 = AXIS2_PLACEMENT_3D ( 'NONE', #277, #271, #13 ) ;
#22 = AXIS2_PLACEMENT_3D ( 'NONE', #99, #244, #80 ) ;
#23 = EDGE_LOOP ( 'NONE', ( #45 ) ) ;
#24 = APPROVAL_STATUS ( 'not_yet_approved' ) ;
#25 = COORDINATED_UNIVERSAL_TIME_OFFSET ( 1, 0, .AHEAD. ) ;
#26 = LOCAL_TIME ( 8, 17, 53.00000000000000000, #46 ) ;
#27 = CLOSED_SHELL ( 'NONE', ( #212, #283, #119, #123 ) ) ;
#28 = APPROVAL_STATUS ( 'not_yet_approved' ) ;
#29 = EDGE_LOOP ( 'NONE', ( #164 ) ) ;
#30 = DIRECTION ( 'NONE',  ( 0.0000000000000000000, 1.000000000000000000, 0.0000000000000000000 ) ) ;
#31 = DIRECTION ( 'NONE',  ( -3.491481338843133355E-15, 1.224646799147353207E-16, -1.000000000000000000 ) ) ;
#32 = EDGE_CURVE ( 'NONE', #133, #133, #116, .T. ) ;
#33 = DIRECTION ( 'NONE',  ( 4.275831445896958607E-31, 1.000000000000000000, 1.224646799147353207E-16 ) ) ;
#34 = DIRECTION ( 'NONE',  ( 4.275831445896958607E-31, 1.000000000000000000, 1.224646799147353207E-16 ) ) ;
#35 = ORIENTED_EDGE ( 'NONE', *, *, #132, .T. ) ;
#36 = AXIS2_PLACEMENT_3D ( 'NONE', #177, #199, #103 ) ;
#37 = VERTEX_POINT ( 'NONE', #252 ) ;
#38 =( NAMED_UNIT ( * ) PLANE_ANGLE_UNIT ( ) SI_UNIT ( $, .RADIAN. ) );
#39 = VERTEX_POINT ( 'NONE', #130 ) ;
#40 = PRODUCT_RELATED_PRODUCT_CATEGORY ( 'detail', '', ( #53 ) ) ;
#41 = DIRECTION ( 'NONE',  ( 3.491481338843133355E-15, -1.224646799147353207E-16, 1.000000000000000000 ) ) ;
#42 = CC_DESIGN_PERSON_AND_ORGANIZATION_ASSIGNMENT ( #70, #162, ( #129 ) ) ;
#43 = EDGE_LOOP ( 'NONE', ( #98 ) ) ;
#44 = PERSON_AND_ORGANIZATION ( #95, #101 ) ;
#45 = ORIENTED_EDGE ( 'NONE', *, *, #230, .F. ) ;
#46 = COORDINATED_UNIVERSAL_TIME_OFFSET ( 1, 0, .AHEAD. ) ;
#47 = ORIENTED_EDGE ( 'NONE', *, *, #186, .F. ) ;
#48 = APPROVAL ( #28, 'UNSPECIFIED' ) ;
#49 = CC_DESIGN_SECURITY_CLASSIFICATION ( #93, ( #129 ) ) ;
#50 = CIRCLE ( 'NONE', #90, 1.489999999999999991 ) ;
#51 = ORIENTED_EDGE ( 'NONE', *, *, #259, .F. ) ;
#52 = CYLINDRICAL_SURFACE ( 'NONE', #226, 1.399999999999998801 ) ;
#53 = PRODUCT ( '321524', '321524', '', ( #74 ) ) ;
#54 = FACE_OUTER_BOUND ( 'NONE', #219, .T. ) ;
#55 = CC_DESIGN_APPROVAL ( #139, ( #93 ) ) ;
#56 = FACE_OUTER_BOUND ( 'NONE', #292, .T. ) ;
#57 = DIRECTION ( 'NONE',  ( -3.491481338843133355E-15, 1.224646799147353207E-16, -1.000000000000000000 ) ) ;
#58 = CARTESIAN_POINT ( 'NONE',  ( 8.987808100725203251E-14, -3.152498711492696494E-15, 25.74210550901360861 ) ) ;
#59 = AXIS2_PLACEMENT_3D ( 'NONE', #110, #298, #112 ) ;
#60 = CARTESIAN_POINT ( 'NONE',  ( 8.728703347107827472E-16, -3.061616997868381169E-17, 0.2499999999999998335 ) ) ;
#61 = AXIS2_PLACEMENT_3D ( 'NONE', #82, #223, #290 ) ;
#62 = CARTESIAN_POINT ( 'NONE',  ( 3.491481338843133355E-14, 1.489999999999998659, 10.00000000000000000 ) ) ;
#63 = EDGE_CURVE ( 'NONE', #294, #294, #50, .T. ) ;
#64 = VERTEX_POINT ( 'NONE', #254 ) ;
#65 = CARTESIAN_POINT ( 'NONE',  ( 8.728703347107833388E-16, 1.489999999999998659, 0.2500000000000000000 ) ) ;
#66 = DIRECTION ( 'NONE',  ( 3.491481338843133355E-15, -1.224646799147353207E-16, 1.000000000000000000 ) ) ;
#67 = DATE_TIME_ROLE ( 'classification_date' ) ;
#68 = CALENDAR_DATE ( 2021, 2, 12 ) ;
#69 = ORIENTED_EDGE ( 'NONE', *, *, #152, .T. ) ;
#70 = PERSON_AND_ORGANIZATION ( #95, #101 ) ;
#71 = PERSON_AND_ORGANIZATION ( #95, #101 ) ;
#72 = ADVANCED_FACE ( 'NONE', ( #172, #104 ), #236, .T. ) ;
#73 = ORIENTED_EDGE ( 'NONE', *, *, #32, .T. ) ;
#74 = MECHANICAL_CONTEXT ( 'NONE', #206, 'mechanical' ) ;
#75 = EDGE_LOOP ( 'NONE', ( #35 ) ) ;
#76 = LOCAL_TIME ( 8, 17, 53.00000000000000000, #238 ) ;
#77 = LOCAL_TIME ( 8, 17, 53.00000000000000000, #189 ) ;
#78 = FACE_OUTER_BOUND ( 'NONE', #141, .T. ) ;
#79 = ADVANCED_FACE ( 'NONE', ( #227 ), #150, .F. ) ;
#80 = DIRECTION ( 'NONE',  ( 0.0000000000000000000, 1.000000000000000000, 0.0000000000000000000 ) ) ;
#81 = DIRECTION ( 'NONE',  ( -3.491481338843133355E-15, 1.224646799147353207E-16, -1.000000000000000000 ) ) ;
#82 = CARTESIAN_POINT ( 'NONE',  ( 0.0000000000000000000, 0.0000000000000000000, 0.0000000000000000000 ) ) ;
#83 = DIRECTION ( 'NONE',  ( 0.0000000000000000000, 1.000000000000000000, 0.0000000000000000000 ) ) ;
#84 = DIRECTION ( 'NONE',  ( 0.0000000000000000000, 1.000000000000000000, 0.0000000000000000000 ) ) ;
#85 = APPROVAL_PERSON_ORGANIZATION ( #282, #127, #301 ) ;
#86 = FACE_OUTER_BOUND ( 'NONE', #169, .T. ) ;
#87 = VERTEX_POINT ( 'NONE', #158 ) ;
#88 = CARTESIAN_POINT ( 'NONE',  ( 0.0000000000000000000, 1.240000000000001545, 0.0000000000000000000 ) ) ;
#89 = DIRECTION ( 'NONE',  ( -3.491481338843133355E-15, 1.224646799147353207E-16, -1.000000000000000000 ) ) ;
#90 = AXIS2_PLACEMENT_3D ( 'NONE', #146, #221, #83 ) ;
#91 = CALENDAR_DATE ( 2021, 2, 12 ) ;
#92 = DATE_AND_TIME ( #68, #266 ) ;
#93 = SECURITY_CLASSIFICATION ( '', '', #211 ) ;
#94 = CC_DESIGN_PERSON_AND_ORGANIZATION_ASSIGNMENT ( #71, #115, ( #129 ) ) ;
#95 = PERSON ( 'UNSPECIFIED', 'UNSPECIFIED', 'UNSPECIFIED', ('UNSPECIFIED'), ('UNSPECIFIED'), ('UNSPECIFIED') ) ;
#96 = EDGE_LOOP ( 'NONE', ( #47 ) ) ;
#97 = APPROVAL_DATE_TIME ( #92, #48 ) ;
#98 = ORIENTED_EDGE ( 'NONE', *, *, #8, .F. ) ;
#99 = CARTESIAN_POINT ( 'NONE',  ( 3.545908146496129695E-14, -1.243737153444402278E-15, 10.15588457268120415 ) ) ;
#100 = ADVANCED_FACE ( 'NONE', ( #196, #107 ), #210, .T. ) ;
#101 = ORGANIZATION ( 'UNSPECIFIED', 'UNSPECIFIED', '' ) ;
#102 = AXIS2_PLACEMENT_3D ( 'NONE', #197, #291, #176 ) ;
#103 = DIRECTION ( 'NONE',  ( 3.877711297423968452E-31, 1.000000000000000000, 1.091478697133059182E-16 ) ) ;
#104 = FACE_OUTER_BOUND ( 'NONE', #75, .T. ) ;
#105 = DIRECTION ( 'NONE',  ( -4.275831445896958607E-31, -1.000000000000000000, -1.224646799147353207E-16 ) ) ;
#106 = ADVANCED_FACE ( 'NONE', ( #56, #54 ), #143, .F. ) ;
#107 = FACE_BOUND ( 'NONE', #3, .T. ) ;
#108 = CARTESIAN_POINT ( 'NONE',  ( 8.849961221477468513E-14, -3.104148534859896361E-15, 25.34729635533384240 ) ) ;
#109 = PRODUCT_DEFINITION_SHAPE ( 'NONE', 'NONE',  #9 ) ;
#110 = CARTESIAN_POINT ( 'NONE',  ( 2.444036937190193601E-13, -8.572527594031472993E-15, 70.00000000000000000 ) ) ;
#111 = DIRECTION ( 'NONE',  ( 0.0000000000000000000, 1.000000000000000000, 0.0000000000000000000 ) ) ;
#112 = DIRECTION ( 'NONE',  ( 0.0000000000000000000, 1.000000000000000000, 0.0000000000000000000 ) ) ;
#113 = VERTEX_POINT ( 'NONE', #155 ) ;
#114 = AXIS2_PLACEMENT_3D ( 'NONE', #296, #180, #84 ) ;
#115 = PERSON_AND_ORGANIZATION_ROLE ( 'creator' ) ;
#116 = CIRCLE ( 'NONE', #194, 1.240000000000001545 ) ;
#117 = PERSON_AND_ORGANIZATION_ROLE ( 'classification_officer' ) ;
#118 = ORIENTED_EDGE ( 'NONE', *, *, #63, .F. ) ;
#119 = ADVANCED_FACE ( 'NONE', ( #193, #78 ), #170, .T. ) ;
#120 = CALENDAR_DATE ( 2021, 2, 12 ) ;
#121 = CARTESIAN_POINT ( 'NONE',  ( 2.444036937190193601E-13, -8.572527594031472993E-15, 70.00000000000000000 ) ) ;
#122 = CARTESIAN_POINT ( 'NONE',  ( 8.728703347107833388E-14, -3.035766082959412415E-15, 25.00000000000000000 ) ) ;
#123 = ADVANCED_FACE ( 'NONE', ( #264 ), #267, .T. ) ;
#124 = CARTESIAN_POINT ( 'NONE',  ( 3.491481338843133355E-14, -1.224646799147353256E-15, 10.00000000000000000 ) ) ;
#125 = AXIS2_PLACEMENT_3D ( 'NONE', #171, #265, #126 ) ;
#126 = DIRECTION ( 'NONE',  ( 4.275831445896958607E-31, 1.000000000000000000, 1.224646799147353207E-16 ) ) ;
#127 = APPROVAL ( #24, 'UNSPECIFIED' ) ;
#128 = VERTEX_POINT ( 'NONE', #234 ) ;
#129 = PRODUCT_DEFINITION_FORMATION_WITH_SPECIFIED_SOURCE ( 'ANY', '', #53, .NOT_KNOWN. ) ;
#130 = CARTESIAN_POINT ( 'NONE',  ( 8.728703347107833388E-14, 1.399999999999996803, 25.00000000000000000 ) ) ;
#131 = CARTESIAN_POINT ( 'NONE',  ( 3.545908146496129695E-14, -1.243737153444402278E-15, 10.15588457268120415 ) ) ;
#132 = EDGE_CURVE ( 'NONE', #181, #181, #247, .T. ) ;
#133 = VERTEX_POINT ( 'NONE', #88 ) ;
#134 = COORDINATED_UNIVERSAL_TIME_OFFSET ( 1, 0, .AHEAD. ) ;
#135 = ORIENTED_EDGE ( 'NONE', *, *, #186, .T. ) ;
#136 = CIRCLE ( 'NONE', #168, 1.489999999999999991 ) ;
#137 = ADVANCED_FACE ( 'NONE', ( #149, #245 ), #52, .T. ) ;
#138 = EDGE_LOOP ( 'NONE', ( #51 ) ) ;
#139 = APPROVAL ( #1, 'UNSPECIFIED' ) ;
#140 = CALENDAR_DATE ( 2021, 2, 12 ) ;
#141 = EDGE_LOOP ( 'NONE', ( #192 ) ) ;
#142 = PERSON_AND_ORGANIZATION ( #95, #101 ) ;
#143 = TOROIDAL_SURFACE ( 'NONE', #182, 3.399999999999999911, 2.000000000000000000 ) ;
#144 = ORIENTED_EDGE ( 'NONE', *, *, #17, .F. ) ;
#145 = CARTESIAN_POINT ( 'NONE',  ( 0.0000000000000000000, 0.0000000000000000000, 0.0000000000000000000 ) ) ;
#146 = CARTESIAN_POINT ( 'NONE',  ( 3.491481338843133355E-14, -1.224646799147353256E-15, 10.00000000000000000 ) ) ;
#147 = AXIS2_PLACEMENT_3D ( 'NONE', #274, #66, #207 ) ;
#148 = CC_DESIGN_DATE_AND_TIME_ASSIGNMENT ( #258, #241, ( #9 ) ) ;
#149 = FACE_OUTER_BOUND ( 'NONE', #23, .T. ) ;
#150 = PLANE ( 'NONE',  #125 ) ;
#151 = CIRCLE ( 'NONE', #286, 1.200000000000001510 ) ;
#152 = EDGE_CURVE ( 'NONE', #64, #64, #136, .T. ) ;
#153 = AXIS2_PLACEMENT_3D ( 'NONE', #58, #195, #289 ) ;
#154 = DIRECTION ( 'NONE',  ( -3.877711297423968452E-31, -1.000000000000000000, -1.091478697133059182E-16 ) ) ;
#155 = CARTESIAN_POINT ( 'NONE',  ( 8.849961221477468513E-14, 1.430384493975577209, 25.34729635533384240 ) ) ;
#156 = AXIS2_PLACEMENT_3D ( 'NONE', #14, #89, #183 ) ;
#157 = FACE_OUTER_BOUND ( 'NONE', #216, .T. ) ;
#158 = CARTESIAN_POINT ( 'NONE',  ( 2.433562493173664138E-13, 1.499999999999992673, 69.70000000000001705 ) ) ;
#159 = APPROVAL_DATE_TIME ( #217, #139 ) ;
#160 = EDGE_LOOP ( 'NONE', ( #5 ) ) ;
#161 = CC_DESIGN_DATE_AND_TIME_ASSIGNMENT ( #184, #67, ( #93 ) ) ;
#162 = PERSON_AND_ORGANIZATION_ROLE ( 'design_supplier' ) ;
#163 = CARTESIAN_POINT ( 'NONE',  ( 0.0000000000000000000, 0.0000000000000000000, 0.0000000000000000000 ) ) ;
#164 = ORIENTED_EDGE ( 'NONE', *, *, #17, .T. ) ;
#165 = APPROVAL_ROLE ( '' ) ;
#166 = ORIENTED_EDGE ( 'NONE', *, *, #303, .F. ) ;
#167 = PERSON_AND_ORGANIZATION_ROLE ( 'design_owner' ) ;
#168 = AXIS2_PLACEMENT_3D ( 'NONE', #124, #225, #30 ) ;
#169 = EDGE_LOOP ( 'NONE', ( #69 ) ) ;
#170 = CYLINDRICAL_SURFACE ( 'NONE', #61, 1.489999999999999325 ) ;
#171 = CARTESIAN_POINT ( 'NONE',  ( 2.444036937190193601E-13, 8.998558695971026591E-33, 70.00000000000000000 ) ) ;
#172 = FACE_BOUND ( 'NONE', #138, .T. ) ;
#173 = AXIS2_PLACEMENT_3D ( 'NONE', #163, #302, #213 ) ;
#174 = MANIFOLD_SOLID_BREP ( 'Corps-Déplacer/Copier1[2]', #27 ) ;
#175 = CLOSED_SHELL ( 'NONE', ( #270, #100, #137, #106, #72, #204, #281, #79 ) ) ;
#176 = DIRECTION ( 'NONE',  ( 0.0000000000000000000, 1.000000000000000000, 0.0000000000000000000 ) ) ;
#177 = CARTESIAN_POINT ( 'NONE',  ( 8.728703347107827472E-16, -3.061616997868381169E-17, 0.2499999999999998335 ) ) ;
#178 = CYLINDRICAL_SURFACE ( 'NONE', #156, 1.499999999999998446 ) ;
#179 = CIRCLE ( 'NONE', #262, 1.399999999999998135 ) ;
#180 = DIRECTION ( 'NONE',  ( -3.491481338843133355E-15, 1.224646799147353207E-16, -1.000000000000000000 ) ) ;
#181 = VERTEX_POINT ( 'NONE', #248 ) ;
#182 = AXIS2_PLACEMENT_3D ( 'NONE', #122, #57, #33 ) ;
#183 = DIRECTION ( 'NONE',  ( 4.275831445896958607E-31, 1.000000000000000000, 1.224646799147353207E-16 ) ) ;
#184 = DATE_AND_TIME ( #91, #299 ) ;
#185 = ORIENTED_EDGE ( 'NONE', *, *, #132, .F. ) ;
#186 = EDGE_CURVE ( 'NONE', #37, #37, #151, .T. ) ;
#187 = APPLICATION_PROTOCOL_DEFINITION ( 'international standard', 'config_control_design', 1994, #268 ) ;
#188 = APPROVAL_PERSON_ORGANIZATION ( #142, #48, #4 ) ;
#189 = COORDINATED_UNIVERSAL_TIME_OFFSET ( 1, 0, .AHEAD. ) ;
#190 = ORIENTED_EDGE ( 'NONE', *, *, #8, .T. ) ;
#191 = EDGE_LOOP ( 'NONE', ( #144 ) ) ;
#192 = ORIENTED_EDGE ( 'NONE', *, *, #63, .T. ) ;
#193 = FACE_OUTER_BOUND ( 'NONE', #43, .T. ) ;
#194 = AXIS2_PLACEMENT_3D ( 'NONE', #11, #31, #269 ) ;
#195 = DIRECTION ( 'NONE',  ( 3.491481338843133355E-15, -1.224646799147353207E-16, 1.000000000000000000 ) ) ;
#196 = FACE_OUTER_BOUND ( 'NONE', #237, .T. ) ;
#197 = CARTESIAN_POINT ( 'NONE',  ( 8.987808100725203251E-14, -3.152498711492696494E-15, 25.74210550901360861 ) ) ;
#198 = CIRCLE ( 'NONE', #36, 1.489999999999998659 ) ;
#199 = DIRECTION ( 'NONE',  ( -3.491481338843133355E-15, 1.224646799147353207E-16, -1.000000000000000000 ) ) ;
#200 = PLANE ( 'NONE',  #21 ) ;
#201 = VERTEX_POINT ( 'NONE', #65 ) ;
#202 = CONICAL_SURFACE ( 'NONE', #209, 1.489999999999998659, 0.7853981633974426169 ) ;
#203 = FACE_BOUND ( 'NONE', #2, .T. ) ;
#204 = ADVANCED_FACE ( 'NONE', ( #228, #233 ), #178, .T. ) ;
#205 = DIRECTION ( 'NONE',  ( 0.0000000000000000000, 1.000000000000000000, 0.0000000000000000000 ) ) ;
#206 = APPLICATION_CONTEXT ( 'configuration controlled 3d designs of mechanical parts and assemblies' ) ;
#207 = DIRECTION ( 'NONE',  ( -4.275831445896958607E-31, -1.000000000000000000, -1.224646799147353207E-16 ) ) ;
#208 = AXIS2_PLACEMENT_3D ( 'NONE', #108, #250, #111 ) ;
#209 = AXIS2_PLACEMENT_3D ( 'NONE', #60, #41, #154 ) ;
#210 = CONICAL_SURFACE ( 'NONE', #22, 1.399999999999998135, 0.5235987755982921543 ) ;
#211 = SECURITY_CLASSIFICATION_LEVEL ( 'unclassified' ) ;
#212 = ADVANCED_FACE ( 'NONE', ( #157 ), #200, .F. ) ;
#213 = DIRECTION ( 'NONE',  ( 1.000000000000000000, 0.0000000000000000000, 0.0000000000000000000 ) ) ;
#214 = EDGE_LOOP ( 'NONE', ( #6 ) ) ;
#215 = PERSON_AND_ORGANIZATION ( #95, #101 ) ;
#216 = EDGE_LOOP ( 'NONE', ( #73 ) ) ;
#217 = DATE_AND_TIME ( #120, #76 ) ;
#218 = APPLICATION_PROTOCOL_DEFINITION ( 'international standard', 'config_control_design', 1994, #206 ) ;
#219 = EDGE_LOOP ( 'NONE', ( #261 ) ) ;
#220 = CIRCLE ( 'NONE', #208, 1.430384493975580318 ) ;
#221 = DIRECTION ( 'NONE',  ( -3.491481338843133355E-15, 1.224646799147353207E-16, -1.000000000000000000 ) ) ;
#222 = CC_DESIGN_PERSON_AND_ORGANIZATION_ASSIGNMENT ( #257, #117, ( #93 ) ) ;
#223 = DIRECTION ( 'NONE',  ( -3.491481338843133355E-15, 1.224646799147353207E-16, -1.000000000000000000 ) ) ;
#224 = CARTESIAN_POINT ( 'NONE',  ( 3.491481338843133355E-14, 1.117321038083081947E-32, 10.00000000000000000 ) ) ;
#225 = DIRECTION ( 'NONE',  ( -3.491481338843133355E-15, 1.224646799147353207E-16, -1.000000000000000000 ) ) ;
#226 = AXIS2_PLACEMENT_3D ( 'NONE', #145, #243, #34 ) ;
#227 = FACE_OUTER_BOUND ( 'NONE', #96, .T. ) ;
#228 = FACE_OUTER_BOUND ( 'NONE', #278, .T. ) ;
#229 = DIRECTION ( 'NONE',  ( 0.0000000000000000000, 1.000000000000000000, 0.0000000000000000000 ) ) ;
#230 = EDGE_CURVE ( 'NONE', #128, #128, #179, .T. ) ;
#231 = CC_DESIGN_APPROVAL ( #48, ( #9 ) ) ;
#232 = CC_DESIGN_PERSON_AND_ORGANIZATION_ASSIGNMENT ( #279, #167, ( #53 ) ) ;
#233 = FACE_OUTER_BOUND ( 'NONE', #29, .T. ) ;
#234 = CARTESIAN_POINT ( 'NONE',  ( 3.545908146496129695E-14, 1.399999999999996803, 10.15588457268120415 ) ) ;
#235 =( GEOMETRIC_REPRESENTATION_CONTEXT ( 3 ) GLOBAL_UNCERTAINTY_ASSIGNED_CONTEXT ( ( #19 ) ) GLOBAL_UNIT_ASSIGNED_CONTEXT ( ( #273, #38, #260 ) ) REPRESENTATION_CONTEXT ( 'NONE', 'WORKASPACE' ) );
#236 = CONICAL_SURFACE ( 'NONE', #153, 1.499999999999996003, 0.1745329251994282016 ) ;
#237 = EDGE_LOOP ( 'NONE', ( #285 ) ) ;
#238 = COORDINATED_UNIVERSAL_TIME_OFFSET ( 1, 0, .AHEAD. ) ;
#239 = ORIENTED_EDGE ( 'NONE', *, *, #230, .T. ) ;
#240 = DATE_AND_TIME ( #140, #26 ) ;
#241 = DATE_TIME_ROLE ( 'creation_date' ) ;
#242 = EDGE_LOOP ( 'NONE', ( #118 ) ) ;
#243 = DIRECTION ( 'NONE',  ( -3.491481338843133355E-15, 1.224646799147353207E-16, -1.000000000000000000 ) ) ;
#244 = DIRECTION ( 'NONE',  ( -3.491481338843133355E-15, 1.224646799147353207E-16, -1.000000000000000000 ) ) ;
#245 = FACE_OUTER_BOUND ( 'NONE', #214, .T. ) ;
#246 = EDGE_LOOP ( 'NONE', ( #190 ) ) ;
#247 = CIRCLE ( 'NONE', #102, 1.499999999999996003 ) ;
#248 = CARTESIAN_POINT ( 'NONE',  ( 8.987808100725203251E-14, 1.499999999999992673, 25.74210550901360861 ) ) ;
#249 = ADVANCED_BREP_SHAPE_REPRESENTATION ( '321524', ( #276, #174, #173 ), #235 ) ;
#250 = DIRECTION ( 'NONE',  ( -3.491481338843133355E-15, 1.224646799147353207E-16, -1.000000000000000000 ) ) ;
#251 = CIRCLE ( 'NONE', #114, 1.399999999999999689 ) ;
#252 = CARTESIAN_POINT ( 'NONE',  ( 2.444036937190193601E-13, 1.199999999999992628, 70.00000000000000000 ) ) ;
#253 = DESIGN_CONTEXT ( 'detailed design', #268, 'design' ) ;
#254 = CARTESIAN_POINT ( 'NONE',  ( 3.491481338843133355E-14, 1.489999999999998659, 10.00000000000000000 ) ) ;
#255 = SHAPE_DEFINITION_REPRESENTATION ( #109, #249 ) ;
#256 = CC_DESIGN_APPROVAL ( #127, ( #129 ) ) ;
#257 = PERSON_AND_ORGANIZATION ( #95, #101 ) ;
#258 = DATE_AND_TIME ( #284, #77 ) ;
#259 = EDGE_CURVE ( 'NONE', #113, #113, #220, .T. ) ;
#260 =( NAMED_UNIT ( * ) SI_UNIT ( $, .STERADIAN. ) SOLID_ANGLE_UNIT ( ) );
#261 = ORIENTED_EDGE ( 'NONE', *, *, #259, .T. ) ;
#262 = AXIS2_PLACEMENT_3D ( 'NONE', #131, #16, #229 ) ;
#263 = PERSON_AND_ORGANIZATION_ROLE ( 'creator' ) ;
#264 = FACE_OUTER_BOUND ( 'NONE', #242, .T. ) ;
#265 = DIRECTION ( 'NONE',  ( -3.491481338843133355E-15, 1.224646799147353207E-16, -1.000000000000000000 ) ) ;
#266 = LOCAL_TIME ( 8, 17, 53.00000000000000000, #134 ) ;
#267 = PLANE ( 'NONE',  #12 ) ;
#268 = APPLICATION_CONTEXT ( 'configuration controlled 3d designs of mechanical parts and assemblies' ) ;
#269 = DIRECTION ( 'NONE',  ( 4.275831445896958607E-31, 1.000000000000000000, 1.224646799147353454E-16 ) ) ;
#270 = ADVANCED_FACE ( 'NONE', ( #86 ), #18, .F. ) ;
#271 = DIRECTION ( 'NONE',  ( 3.491481338843133355E-15, -1.224646799147353207E-16, 1.000000000000000000 ) ) ;
#272 = APPROVAL_PERSON_ORGANIZATION ( #44, #139, #165 ) ;
#273 =( LENGTH_UNIT ( ) NAMED_UNIT ( * ) SI_UNIT ( .MILLI., .METRE. ) );
#274 = CARTESIAN_POINT ( 'NONE',  ( 3.491481338843133355E-14, 1.117321038083081947E-32, 10.00000000000000000 ) ) ;
#275 = DIRECTION ( 'NONE',  ( -3.491481338843133355E-15, 1.224646799147353207E-16, -1.000000000000000000 ) ) ;
#276 = MANIFOLD_SOLID_BREP ( 'Corps-Déplacer/Copier1[1]', #175 ) ;
#277 = CARTESIAN_POINT ( 'NONE',  ( -2.651015496456117699E-31, 9.298510652503530306E-33, -7.592810154713600189E-17 ) ) ;
#278 = EDGE_LOOP ( 'NONE', ( #185 ) ) ;
#279 = PERSON_AND_ORGANIZATION ( #95, #101 ) ;
#280 = CONICAL_SURFACE ( 'NONE', #59, 1.200000000000001510, 0.7853981633974566057 ) ;
#281 = ADVANCED_FACE ( 'NONE', ( #293, #203 ), #280, .T. ) ;
#282 = PERSON_AND_ORGANIZATION ( #95, #101 ) ;
#283 = ADVANCED_FACE ( 'NONE', ( #15, #295 ), #202, .T. ) ;
#284 = CALENDAR_DATE ( 2021, 2, 12 ) ;
#285 = ORIENTED_EDGE ( 'NONE', *, *, #152, .F. ) ;
#286 = AXIS2_PLACEMENT_3D ( 'NONE', #121, #275, #205 ) ;
#287 = AXIS2_PLACEMENT_3D ( 'NONE', #288, #81, #7 ) ;
#288 = CARTESIAN_POINT ( 'NONE',  ( 2.433562493173664138E-13, -8.535788190057053710E-15, 69.70000000000001705 ) ) ;
#289 = DIRECTION ( 'NONE',  ( 0.0000000000000000000, -1.000000000000000000, 0.0000000000000000000 ) ) ;
#290 = DIRECTION ( 'NONE',  ( 4.275831445896958607E-31, 1.000000000000000000, 1.224646799147353207E-16 ) ) ;
#291 = DIRECTION ( 'NONE',  ( -3.491481338843133355E-15, 1.224646799147353207E-16, -1.000000000000000000 ) ) ;
#292 = EDGE_LOOP ( 'NONE', ( #166 ) ) ;
#293 = FACE_OUTER_BOUND ( 'NONE', #191, .T. ) ;
#294 = VERTEX_POINT ( 'NONE', #62 ) ;
#295 = FACE_OUTER_BOUND ( 'NONE', #246, .T. ) ;
#296 = CARTESIAN_POINT ( 'NONE',  ( 8.728703347107833388E-14, -3.061616997868383043E-15, 25.00000000000000000 ) ) ;
#297 = CC_DESIGN_PERSON_AND_ORGANIZATION_ASSIGNMENT ( #215, #263, ( #9 ) ) ;
#298 = DIRECTION ( 'NONE',  ( -3.491481338843133355E-15, 1.224646799147353207E-16, -1.000000000000000000 ) ) ;
#299 = LOCAL_TIME ( 8, 17, 53.00000000000000000, #25 ) ;
#300 = CIRCLE ( 'NONE', #287, 1.500000000000001110 ) ;
#301 = APPROVAL_ROLE ( '' ) ;
#302 = DIRECTION ( 'NONE',  ( 0.0000000000000000000, 0.0000000000000000000, 1.000000000000000000 ) ) ;
#303 = EDGE_CURVE ( 'NONE', #39, #39, #251, .T. ) ;
ENDSEC;
END-ISO-10303-21;
