ISO-10303-21;
HEADER;
FILE_DESCRIPTION (( 'STEP AP203' ),
    '1' );
FILE_NAME ('321523.STEP',
    '2021-11-26T08:05:53',
    ( '' ),
    ( '' ),
    'SwSTEP 2.0',
    'SolidWorks 2019',
    '' );
FILE_SCHEMA (( 'CONFIG_CONTROL_DESIGN' ));
ENDSEC;

DATA;
#1 = LOCAL_TIME ( 9, 5, 53.00000000000000000, #146 ) ;
#2 = PLANE ( 'NONE',  #133 ) ;
#3 = ADVANCED_FACE ( 'NONE', ( #154, #102 ), #187, .T. ) ;
#4 = DIRECTION ( 'NONE',  ( -3.491481338843133355E-15, 1.030643345817079849E-16, -1.000000000000000000 ) ) ;
#5 = FACE_OUTER_BOUND ( 'NONE', #115, .T. ) ;
#6 =( NAMED_UNIT ( * ) PLANE_ANGLE_UNIT ( ) SI_UNIT ( $, .RADIAN. ) );
#7 = LOCAL_TIME ( 9, 5, 53.00000000000000000, #27 ) ;
#8 = FACE_OUTER_BOUND ( 'NONE', #91, .T. ) ;
#9 = DIRECTION ( 'NONE',  ( 0.0000000000000000000, 1.000000000000000000, 0.0000000000000000000 ) ) ;
#10 = CARTESIAN_POINT ( 'NONE',  ( 3.505447264198505636E-13, 2.999999999999985789, 100.4000000000000057 ) ) ;
#11 = VERTEX_POINT ( 'NONE', #63 ) ;
#12 = VERTEX_POINT ( 'NONE', #161 ) ;
#13 = SECURITY_CLASSIFICATION_LEVEL ( 'unclassified' ) ;
#14 = COORDINATED_UNIVERSAL_TIME_OFFSET ( 1, 0, .AHEAD. ) ;
#15 = ORIENTED_EDGE ( 'NONE', *, *, #69, .T. ) ;
#16 = APPROVAL ( #30, 'UNSPECIFIED' ) ;
#17 = EDGE_LOOP ( 'NONE', ( #31 ) ) ;
#18 = LOCAL_TIME ( 9, 5, 53.00000000000000000, #45 ) ;
#19 = CARTESIAN_POINT ( 'NONE',  ( 3.526396152231565067E-13, -1.040949779275250653E-14, 101.0000000000000000 ) ) ;
#20 = VERTEX_POINT ( 'NONE', #181 ) ;
#21 = FACE_OUTER_BOUND ( 'NONE', #92, .T. ) ;
#22 = DIRECTION ( 'NONE',  ( -3.598472008923184252E-31, -1.000000000000000000, -1.030643345817079849E-16 ) ) ;
#23 = PRODUCT_DEFINITION_SHAPE ( 'NONE', 'NONE',  #224 ) ;
#24 = DIRECTION ( 'NONE',  ( 0.0000000000000000000, 1.000000000000000000, 0.0000000000000000000 ) ) ;
#25 =( NAMED_UNIT ( * ) SI_UNIT ( $, .STERADIAN. ) SOLID_ANGLE_UNIT ( ) );
#26 = CARTESIAN_POINT ( 'NONE',  ( 3.932207619613471532E-30, 5.059325568314636219E-31, 1.126229023729042272E-15 ) ) ;
#27 = COORDINATED_UNIVERSAL_TIME_OFFSET ( 1, 0, .AHEAD. ) ;
#28 = AXIS2_PLACEMENT_3D ( 'NONE', #59, #218, #216 ) ;
#29 = APPROVAL_PERSON_ORGANIZATION ( #239, #16, #87 ) ;
#30 = APPROVAL_STATUS ( 'not_yet_approved' ) ;
#31 = ORIENTED_EDGE ( 'NONE', *, *, #43, .T. ) ;
#32 = CIRCLE ( 'NONE', #66, 2.999999999999996003 ) ;
#33 = DIRECTION ( 'NONE',  ( 3.491481338843133355E-15, -1.030643345817079849E-16, 1.000000000000000000 ) ) ;
#34 = ADVANCED_FACE ( 'NONE', ( #38 ), #191, .T. ) ;
#35 = DIRECTION ( 'NONE',  ( -1.568467908100401281E-30, 1.000000000000000000, -4.492270632098229009E-16 ) ) ;
#36 = CARTESIAN_POINT ( 'NONE',  ( -2.533924557721684107E-30, 2.869059892324148375, -7.257448377373468013E-16 ) ) ;
#37 = MECHANICAL_CONTEXT ( 'NONE', #219, 'mechanical' ) ;
#38 = FACE_OUTER_BOUND ( 'NONE', #93, .T. ) ;
#39 = APPROVAL_ROLE ( '' ) ;
#40 = AXIS2_PLACEMENT_3D ( 'NONE', #211, #158, #24 ) ;
#41 = CARTESIAN_POINT ( 'NONE',  ( 1.396592535537257878E-15, 1.796908252839297421E-16, 0.4000000000000012990 ) ) ;
#42 = DATE_AND_TIME ( #84, #144 ) ;
#43 = EDGE_CURVE ( 'NONE', #11, #11, #170, .T. ) ;
#44 = EDGE_CURVE ( 'NONE', #12, #12, #85, .T. ) ;
#45 = COORDINATED_UNIVERSAL_TIME_OFFSET ( 1, 0, .AHEAD. ) ;
#46 = CALENDAR_DATE ( 2021, 26, 11 ) ;
#47 = ADVANCED_FACE ( 'NONE', ( #118, #175 ), #127, .T. ) ;
#48 = AXIS2_PLACEMENT_3D ( 'NONE', #26, #83, #107 ) ;
#49 = APPLICATION_CONTEXT ( 'configuration controlled 3d designs of mechanical parts and assemblies' ) ;
#50 = ORIENTED_EDGE ( 'NONE', *, *, #44, .F. ) ;
#51 = AXIS2_PLACEMENT_3D ( 'NONE', #229, #136, #156 ) ;
#52 = EDGE_LOOP ( 'NONE', ( #50 ) ) ;
#53 = DIRECTION ( 'NONE',  ( -3.491481338843133355E-15, 1.030643345817079849E-16, -1.000000000000000000 ) ) ;
#54 = CARTESIAN_POINT ( 'NONE',  ( 6.221349564767289277E-14, -1.836467650448316427E-15, 17.81865334794734679 ) ) ;
#55 = VERTEX_POINT ( 'NONE', #130 ) ;
#56 = AXIS2_PLACEMENT_3D ( 'NONE', #180, #120, #60 ) ;
#57 = DIRECTION ( 'NONE',  ( -3.491481338843133355E-15, 1.030643345817079849E-16, -1.000000000000000000 ) ) ;
#58 = CC_DESIGN_DATE_AND_TIME_ASSIGNMENT ( #109, #164, ( #224 ) ) ;
#59 = CARTESIAN_POINT ( 'NONE',  ( 0.0000000000000000000, 0.0000000000000000000, 0.0000000000000000000 ) ) ;
#60 = DIRECTION ( 'NONE',  ( 0.0000000000000000000, 1.000000000000000000, 0.0000000000000000000 ) ) ;
#61 = APPLICATION_PROTOCOL_DEFINITION ( 'international standard', 'config_control_design', 1994, #49 ) ;
#62 = DIRECTION ( 'NONE',  ( -3.491481338843133355E-15, 1.030643345817079849E-16, -1.000000000000000000 ) ) ;
#63 = CARTESIAN_POINT ( 'NONE',  ( 3.526396152231565067E-13, 2.399999999999985700, 101.0000000000000000 ) ) ;
#64 = CC_DESIGN_APPROVAL ( #16, ( #231 ) ) ;
#65 = APPROVAL_STATUS ( 'not_yet_approved' ) ;
#66 = AXIS2_PLACEMENT_3D ( 'NONE', #160, #4, #77 ) ;
#67 = MANIFOLD_SOLID_BREP ( 'Corps-Déplacer/Copier1[1]', #151 ) ;
#68 = PERSON_AND_ORGANIZATION ( #71, #236 ) ;
#69 = EDGE_CURVE ( 'NONE', #210, #210, #32, .T. ) ;
#70 = ORIENTED_EDGE ( 'NONE', *, *, #217, .T. ) ;
#71 = PERSON ( 'UNSPECIFIED', 'UNSPECIFIED', 'UNSPECIFIED', ('UNSPECIFIED'), ('UNSPECIFIED'), ('UNSPECIFIED') ) ;
#72 = AXIS2_PLACEMENT_3D ( 'NONE', #54, #53, #173 ) ;
#73 = MANIFOLD_SOLID_BREP ( 'Corps-Déplacer/Copier1[2]', #163 ) ;
#74 = ORIENTED_EDGE ( 'NONE', *, *, #43, .F. ) ;
#75 = CONICAL_SURFACE ( 'NONE', #56, 3.099999999999999645, 0.5235987755982923764 ) ;
#76 = DIRECTION ( 'NONE',  ( 3.598472008923184252E-31, 1.000000000000000000, 1.030643345817079849E-16 ) ) ;
#77 = DIRECTION ( 'NONE',  ( 0.0000000000000000000, 1.000000000000000000, 0.0000000000000000000 ) ) ;
#78 = DIRECTION ( 'NONE',  ( -3.491481338843133355E-15, 1.030643345817079849E-16, -1.000000000000000000 ) ) ;
#79 = DIRECTION ( 'NONE',  ( -3.491481338843133355E-15, -4.492270632098229009E-16, -1.000000000000000000 ) ) ;
#80 = APPLICATION_PROTOCOL_DEFINITION ( 'international standard', 'config_control_design', 1994, #219 ) ;
#81 = CARTESIAN_POINT ( 'NONE',  ( 0.0000000000000000000, 0.0000000000000000000, 0.0000000000000000000 ) ) ;
#82 =( LENGTH_UNIT ( ) NAMED_UNIT ( * ) SI_UNIT ( .MILLI., .METRE. ) );
#83 = DIRECTION ( 'NONE',  ( 3.491481338843133355E-15, 4.492270632098229009E-16, 1.000000000000000000 ) ) ;
#84 = CALENDAR_DATE ( 2021, 26, 11 ) ;
#85 = CIRCLE ( 'NONE', #72, 3.099999999999999645 ) ;
#86 = DATE_TIME_ROLE ( 'classification_date' ) ;
#87 = APPROVAL_ROLE ( '' ) ;
#88 = EDGE_CURVE ( 'NONE', #20, #20, #137, .T. ) ;
#89 = PRODUCT_DEFINITION_FORMATION_WITH_SPECIFIED_SOURCE ( 'ANY', '', #139, .NOT_KNOWN. ) ;
#90 = CC_DESIGN_PERSON_AND_ORGANIZATION_ASSIGNMENT ( #194, #234, ( #139 ) ) ;
#91 = EDGE_LOOP ( 'NONE', ( #94 ) ) ;
#92 = EDGE_LOOP ( 'NONE', ( #15 ) ) ;
#93 = EDGE_LOOP ( 'NONE', ( #74 ) ) ;
#94 = ORIENTED_EDGE ( 'NONE', *, *, #108, .F. ) ;
#95 = PRODUCT_RELATED_PRODUCT_CATEGORY ( 'detail', '', ( #139 ) ) ;
#96 = CARTESIAN_POINT ( 'NONE',  ( 6.221349564767290539E-14, 3.099999999999997868, 17.81865334794735034 ) ) ;
#97 = DESIGN_CONTEXT ( 'detailed design', #49, 'design' ) ;
#98 = DATE_AND_TIME ( #125, #18 ) ;
#99 = CC_DESIGN_DATE_AND_TIME_ASSIGNMENT ( #132, #86, ( #231 ) ) ;
#100 = DIRECTION ( 'NONE',  ( 3.598472008923184252E-31, 1.000000000000000000, 1.030643345817079726E-16 ) ) ;
#101 = PERSON_AND_ORGANIZATION_ROLE ( 'design_supplier' ) ;
#102 = FACE_OUTER_BOUND ( 'NONE', #134, .T. ) ;
#103 = COORDINATED_UNIVERSAL_TIME_OFFSET ( 1, 0, .AHEAD. ) ;
#104 =( GEOMETRIC_REPRESENTATION_CONTEXT ( 3 ) GLOBAL_UNCERTAINTY_ASSIGNED_CONTEXT ( ( #227 ) ) GLOBAL_UNIT_ASSIGNED_CONTEXT ( ( #82, #6, #25 ) ) REPRESENTATION_CONTEXT ( 'NONE', 'WORKASPACE' ) );
#105 = CARTESIAN_POINT ( 'NONE',  ( 3.932207619613471532E-30, 5.059325568314636219E-31, 1.126229023729042272E-15 ) ) ;
#106 = VERTEX_POINT ( 'NONE', #129 ) ;
#107 = DIRECTION ( 'NONE',  ( 1.568467908100401281E-30, -1.000000000000000000, 4.492270632098229009E-16 ) ) ;
#108 = EDGE_CURVE ( 'NONE', #106, #106, #184, .T. ) ;
#109 = DATE_AND_TIME ( #213, #7 ) ;
#110 = AXIS2_PLACEMENT_3D ( 'NONE', #96, #78, #76 ) ;
#111 = APPROVAL ( #157, 'UNSPECIFIED' ) ;
#112 = CALENDAR_DATE ( 2021, 26, 11 ) ;
#113 = APPROVAL_PERSON_ORGANIZATION ( #142, #114, #39 ) ;
#114 = APPROVAL ( #65, 'UNSPECIFIED' ) ;
#115 = EDGE_LOOP ( 'NONE', ( #188 ) ) ;
#116 = ORIENTED_EDGE ( 'NONE', *, *, #88, .T. ) ;
#117 = ORIENTED_EDGE ( 'NONE', *, *, #192, .F. ) ;
#118 = FACE_OUTER_BOUND ( 'NONE', #152, .T. ) ;
#119 = CC_DESIGN_APPROVAL ( #111, ( #224 ) ) ;
#120 = DIRECTION ( 'NONE',  ( -3.491481338843133355E-15, 1.030643345817079849E-16, -1.000000000000000000 ) ) ;
#121 = PERSON_AND_ORGANIZATION ( #71, #236 ) ;
#122 = FACE_OUTER_BOUND ( 'NONE', #243, .T. ) ;
#123 = VERTEX_POINT ( 'NONE', #179 ) ;
#124 = DIRECTION ( 'NONE',  ( 3.491481338843133355E-15, 4.492270632098229009E-16, 1.000000000000000000 ) ) ;
#125 = CALENDAR_DATE ( 2021, 26, 11 ) ;
#126 = CIRCLE ( 'NONE', #238, 2.869059892324148375 ) ;
#127 = CYLINDRICAL_SURFACE ( 'NONE', #225, 3.099999999999993872 ) ;
#128 = ADVANCED_FACE ( 'NONE', ( #122 ), #2, .T. ) ;
#129 = CARTESIAN_POINT ( 'NONE',  ( 6.281823795492844412E-14, 2.999999999999988010, 17.99185842870425489 ) ) ;
#130 = CARTESIAN_POINT ( 'NONE',  ( -5.678207479149477282E-31, 2.869059892324148375, -1.626303258728256651E-16 ) ) ;
#131 = AXIS2_PLACEMENT_3D ( 'NONE', #178, #33, #22 ) ;
#132 = DATE_AND_TIME ( #112, #1 ) ;
#133 = AXIS2_PLACEMENT_3D ( 'NONE', #36, #235, #35 ) ;
#134 = EDGE_LOOP ( 'NONE', ( #186 ) ) ;
#135 = CARTESIAN_POINT ( 'NONE',  ( 6.281823795492844412E-14, -1.854318916842698141E-15, 17.99185842870425489 ) ) ;
#136 = DIRECTION ( 'NONE',  ( -3.491481338843133355E-15, 1.030643345817079849E-16, -1.000000000000000000 ) ) ;
#137 = CIRCLE ( 'NONE', #40, 3.099999999999989875 ) ;
#138 = DIRECTION ( 'NONE',  ( -1.568467908100401281E-30, 1.000000000000000000, -4.492270632098229009E-16 ) ) ;
#139 = PRODUCT ( '321523', '321523', '', ( #37 ) ) ;
#140 = PERSON_AND_ORGANIZATION ( #71, #236 ) ;
#141 = CYLINDRICAL_SURFACE ( 'NONE', #205, 2.999999999999993339 ) ;
#142 = PERSON_AND_ORGANIZATION ( #71, #236 ) ;
#143 = DIRECTION ( 'NONE',  ( -3.491481338843133355E-15, -4.492270632098229009E-16, -1.000000000000000000 ) ) ;
#144 = LOCAL_TIME ( 9, 5, 53.00000000000000000, #103 ) ;
#145 = DATE_AND_TIME ( #46, #172 ) ;
#146 = COORDINATED_UNIVERSAL_TIME_OFFSET ( 1, 0, .AHEAD. ) ;
#147 = PERSON_AND_ORGANIZATION_ROLE ( 'classification_officer' ) ;
#148 = ADVANCED_FACE ( 'NONE', ( #21, #8 ), #141, .T. ) ;
#149 = AXIS2_PLACEMENT_3D ( 'NONE', #19, #57, #9 ) ;
#150 = ORIENTED_EDGE ( 'NONE', *, *, #192, .T. ) ;
#151 = CLOSED_SHELL ( 'NONE', ( #34, #3, #148, #171, #174 ) ) ;
#152 = EDGE_LOOP ( 'NONE', ( #116 ) ) ;
#153 = DIRECTION ( 'NONE',  ( -3.491481338843133355E-15, -4.492270632098229009E-16, -1.000000000000000000 ) ) ;
#154 = FACE_BOUND ( 'NONE', #17, .T. ) ;
#155 = PERSON_AND_ORGANIZATION ( #71, #236 ) ;
#156 = DIRECTION ( 'NONE',  ( 0.0000000000000000000, 1.000000000000000000, 0.0000000000000000000 ) ) ;
#157 = APPROVAL_STATUS ( 'not_yet_approved' ) ;
#158 = DIRECTION ( 'NONE',  ( -3.491481338843133355E-15, -4.492270632098229009E-16, -1.000000000000000000 ) ) ;
#159 = PERSON_AND_ORGANIZATION ( #71, #236 ) ;
#160 = CARTESIAN_POINT ( 'NONE',  ( 3.505447264198505636E-13, -1.034765919200348261E-14, 100.4000000000000057 ) ) ;
#161 = CARTESIAN_POINT ( 'NONE',  ( 6.221349564767289277E-14, 3.099999999999997868, 17.81865334794734679 ) ) ;
#162 = FACE_OUTER_BOUND ( 'NONE', #240, .T. ) ;
#163 = CLOSED_SHELL ( 'NONE', ( #183, #47, #220, #128 ) ) ;
#164 = DATE_TIME_ROLE ( 'creation_date' ) ;
#165 = CIRCLE ( 'NONE', #215, 3.099999999999997868 ) ;
#166 = CC_DESIGN_PERSON_AND_ORGANIZATION_ASSIGNMENT ( #68, #147, ( #231 ) ) ;
#167 = APPROVAL_PERSON_ORGANIZATION ( #140, #111, #230 ) ;
#168 = ADVANCED_BREP_SHAPE_REPRESENTATION ( '321523', ( #67, #73, #28 ), #104 ) ;
#169 = ORIENTED_EDGE ( 'NONE', *, *, #108, .T. ) ;
#170 = CIRCLE ( 'NONE', #149, 2.399999999999996358 ) ;
#171 = ADVANCED_FACE ( 'NONE', ( #233, #177 ), #75, .T. ) ;
#172 = LOCAL_TIME ( 9, 5, 53.00000000000000000, #14 ) ;
#173 = DIRECTION ( 'NONE',  ( 0.0000000000000000000, 1.000000000000000000, 0.0000000000000000000 ) ) ;
#174 = ADVANCED_FACE ( 'NONE', ( #5 ), #212, .T. ) ;
#175 = FACE_OUTER_BOUND ( 'NONE', #242, .T. ) ;
#176 = PERSON_AND_ORGANIZATION_ROLE ( 'creator' ) ;
#177 = FACE_OUTER_BOUND ( 'NONE', #52, .T. ) ;
#178 = CARTESIAN_POINT ( 'NONE',  ( 3.526396152231565067E-13, -1.040949779275250653E-14, 101.0000000000000000 ) ) ;
#179 = CARTESIAN_POINT ( 'NONE',  ( 1.396592535537253145E-15, 3.099999999999997868, 0.3999999999999999112 ) ) ;
#180 = CARTESIAN_POINT ( 'NONE',  ( 6.221349564767289277E-14, -1.836467650448316427E-15, 17.81865334794734679 ) ) ;
#181 = CARTESIAN_POINT ( 'NONE',  ( 6.221349564767289277E-14, 3.099999999999997868, 17.81865334794734679 ) ) ;
#182 = FACE_BOUND ( 'NONE', #206, .T. ) ;
#183 = ADVANCED_FACE ( 'NONE', ( #232 ), #207, .T. ) ;
#184 = CIRCLE ( 'NONE', #196, 2.999999999999989786 ) ;
#185 = CC_DESIGN_PERSON_AND_ORGANIZATION_ASSIGNMENT ( #159, #199, ( #224 ) ) ;
#186 = ORIENTED_EDGE ( 'NONE', *, *, #69, .F. ) ;
#187 = CONICAL_SURFACE ( 'NONE', #51, 2.999999999999996003, 0.7853981633974453924 ) ;
#188 = ORIENTED_EDGE ( 'NONE', *, *, #44, .T. ) ;
#189 = EDGE_LOOP ( 'NONE', ( #169 ) ) ;
#190 = CARTESIAN_POINT ( 'NONE',  ( 0.0000000000000000000, 0.0000000000000000000, 0.0000000000000000000 ) ) ;
#191 = PLANE ( 'NONE',  #131 ) ;
#192 = EDGE_CURVE ( 'NONE', #55, #55, #126, .T. ) ;
#193 = CARTESIAN_POINT ( 'NONE',  ( 6.221349564767290539E-14, 8.004621313852268179E-15, 17.81865334794735034 ) ) ;
#194 = PERSON_AND_ORGANIZATION ( #71, #236 ) ;
#195 = DIRECTION ( 'NONE',  ( 1.568467908100401281E-30, -1.000000000000000000, 4.492270632098229009E-16 ) ) ;
#196 = AXIS2_PLACEMENT_3D ( 'NONE', #135, #198, #208 ) ;
#197 = APPROVAL_DATE_TIME ( #98, #114 ) ;
#198 = DIRECTION ( 'NONE',  ( -3.491481338843133355E-15, 1.030643345817079849E-16, -1.000000000000000000 ) ) ;
#199 = PERSON_AND_ORGANIZATION_ROLE ( 'creator' ) ;
#200 = CC_DESIGN_APPROVAL ( #114, ( #89 ) ) ;
#201 = SHAPE_DEFINITION_REPRESENTATION ( #23, #168 ) ;
#202 = APPROVAL_DATE_TIME ( #145, #16 ) ;
#203 = CC_DESIGN_SECURITY_CLASSIFICATION ( #231, ( #89 ) ) ;
#204 = CC_DESIGN_PERSON_AND_ORGANIZATION_ASSIGNMENT ( #121, #176, ( #89 ) ) ;
#205 = AXIS2_PLACEMENT_3D ( 'NONE', #190, #62, #100 ) ;
#206 = EDGE_LOOP ( 'NONE', ( #117 ) ) ;
#207 = PLANE ( 'NONE',  #221 ) ;
#208 = DIRECTION ( 'NONE',  ( 0.0000000000000000000, 1.000000000000000000, 0.0000000000000000000 ) ) ;
#209 = CC_DESIGN_PERSON_AND_ORGANIZATION_ASSIGNMENT ( #155, #101, ( #89 ) ) ;
#210 = VERTEX_POINT ( 'NONE', #10 ) ;
#211 = CARTESIAN_POINT ( 'NONE',  ( 6.221349564767289277E-14, 8.004621313852266601E-15, 17.81865334794734679 ) ) ;
#212 = PLANE ( 'NONE',  #110 ) ;
#213 = CALENDAR_DATE ( 2021, 26, 11 ) ;
#214 = DIRECTION ( 'NONE',  ( -1.568467908100401281E-30, 1.000000000000000000, -4.492270632098229009E-16 ) ) ;
#215 = AXIS2_PLACEMENT_3D ( 'NONE', #41, #153, #228 ) ;
#216 = DIRECTION ( 'NONE',  ( 1.000000000000000000, 0.0000000000000000000, 0.0000000000000000000 ) ) ;
#217 = EDGE_CURVE ( 'NONE', #123, #123, #165, .T. ) ;
#218 = DIRECTION ( 'NONE',  ( 0.0000000000000000000, 0.0000000000000000000, 1.000000000000000000 ) ) ;
#219 = APPLICATION_CONTEXT ( 'configuration controlled 3d designs of mechanical parts and assemblies' ) ;
#220 = ADVANCED_FACE ( 'NONE', ( #162, #182 ), #241, .T. ) ;
#221 = AXIS2_PLACEMENT_3D ( 'NONE', #193, #124, #195 ) ;
#222 = ORIENTED_EDGE ( 'NONE', *, *, #88, .F. ) ;
#223 = ORIENTED_EDGE ( 'NONE', *, *, #217, .F. ) ;
#224 = PRODUCT_DEFINITION ( 'UNKNOWN', '', #89, #97 ) ;
#225 = AXIS2_PLACEMENT_3D ( 'NONE', #81, #79, #138 ) ;
#226 = EDGE_LOOP ( 'NONE', ( #222 ) ) ;
#227 = UNCERTAINTY_MEASURE_WITH_UNIT (LENGTH_MEASURE( 1.000000000000000082E-05 ), #82, 'distance_accuracy_value', 'NONE');
#228 = DIRECTION ( 'NONE',  ( -1.553169309989707469E-30, 1.000000000000000000, -4.546654271713409095E-16 ) ) ;
#229 = CARTESIAN_POINT ( 'NONE',  ( 3.505447264198505636E-13, -1.034765919200348261E-14, 100.4000000000000057 ) ) ;
#230 = APPROVAL_ROLE ( '' ) ;
#231 = SECURITY_CLASSIFICATION ( '', '', #13 ) ;
#232 = FACE_OUTER_BOUND ( 'NONE', #226, .T. ) ;
#233 = FACE_BOUND ( 'NONE', #189, .T. ) ;
#234 = PERSON_AND_ORGANIZATION_ROLE ( 'design_owner' ) ;
#235 = DIRECTION ( 'NONE',  ( -3.491481338843133355E-15, -4.492270632098229009E-16, -1.000000000000000000 ) ) ;
#236 = ORGANIZATION ( 'UNSPECIFIED', 'UNSPECIFIED', '' ) ;
#237 = APPROVAL_DATE_TIME ( #42, #111 ) ;
#238 = AXIS2_PLACEMENT_3D ( 'NONE', #105, #143, #214 ) ;
#239 = PERSON_AND_ORGANIZATION ( #71, #236 ) ;
#240 = EDGE_LOOP ( 'NONE', ( #70 ) ) ;
#241 = CONICAL_SURFACE ( 'NONE', #48, 2.869059892324148375, 0.5235987755982969283 ) ;
#242 = EDGE_LOOP ( 'NONE', ( #223 ) ) ;
#243 = EDGE_LOOP ( 'NONE', ( #150 ) ) ;
ENDSEC;
END-ISO-10303-21;
