ISO-10303-21;
HEADER;
FILE_DESCRIPTION (( 'STEP AP203' ),
    '1' );
FILE_NAME ('321522.step',
    '2021-11-26T10:04:41',
    ( '' ),
    ( '' ),
    'SwSTEP 2.0',
    'SolidWorks 2019',
    '' );
FILE_SCHEMA (( 'CONFIG_CONTROL_DESIGN' ));
ENDSEC;

DATA;
#1 = CALENDAR_DATE ( 2021, 26, 11 ) ;
#2 = ORIENTED_EDGE ( 'NONE', *, *, #158, .T. ) ;
#3 = CARTESIAN_POINT ( 'NONE',  ( 0.0000000000000000000, 2.864059892324153367, 0.0000000000000000000 ) ) ;
#4 = FACE_OUTER_BOUND ( 'NONE', #204, .T. ) ;
#5 = CARTESIAN_POINT ( 'NONE',  ( 4.223038433510810050E-14, 3.095000000000003304, 12.09526279441628382 ) ) ;
#6 = DIRECTION ( 'NONE',  ( -3.153425691349006731E-31, -1.000000000000000000, -9.031770143711729009E-17 ) ) ;
#7 = CC_DESIGN_APPROVAL ( #206, ( #19 ) ) ;
#8 = PERSON_AND_ORGANIZATION ( #101, #174 ) ;
#9 = EDGE_LOOP ( 'NONE', ( #227 ) ) ;
#10 = AXIS2_PLACEMENT_3D ( 'NONE', #191, #88, #139 ) ;
#11 = PERSON_AND_ORGANIZATION ( #101, #174 ) ;
#12 = DIRECTION ( 'NONE',  ( 0.0000000000000000000, 1.000000000000000000, 0.0000000000000000000 ) ) ;
#13 = CARTESIAN_POINT ( 'NONE',  ( 0.0000000000000000000, 0.0000000000000000000, 0.0000000000000000000 ) ) ;
#14 = CC_DESIGN_APPROVAL ( #84, ( #149 ) ) ;
#15 = PRODUCT_DEFINITION ( 'UNKNOWN', '', #149, #193 ) ;
#16 = AXIS2_PLACEMENT_3D ( 'NONE', #13, #144, #201 ) ;
#17 = DIRECTION ( 'NONE',  ( -3.491481338843133355E-15, 9.031770143711729009E-17, -1.000000000000000000 ) ) ;
#18 = CC_DESIGN_PERSON_AND_ORGANIZATION_ASSIGNMENT ( #179, #56, ( #149 ) ) ;
#19 = SECURITY_CLASSIFICATION ( '', '', #32 ) ;
#20 = CARTESIAN_POINT ( 'NONE',  ( -2.825304756350999018E-30, 2.864059892324153367, -8.091994434909782280E-16 ) ) ;
#21 = CARTESIAN_POINT ( 'NONE',  ( 4.223038433510809418E-14, 3.095000000000003304, 12.09526279441628205 ) ) ;
#22 = DIRECTION ( 'NONE',  ( 3.153425691349006731E-31, 1.000000000000000000, 9.031770143711729009E-17 ) ) ;
#23 = PRODUCT_DEFINITION_SHAPE ( 'NONE', 'NONE',  #15 ) ;
#24 = DIRECTION ( 'NONE',  ( 0.0000000000000000000, 1.000000000000000000, 0.0000000000000000000 ) ) ;
#25 = DATE_TIME_ROLE ( 'classification_date' ) ;
#26 = UNCERTAINTY_MEASURE_WITH_UNIT (LENGTH_MEASURE( 1.000000000000000082E-05 ), #104, 'distance_accuracy_value', 'NONE');
#27 = CC_DESIGN_PERSON_AND_ORGANIZATION_ASSIGNMENT ( #92, #127, ( #222 ) ) ;
#28 = CIRCLE ( 'NONE', #39, 3.095000000000002860 ) ;
#29 = ORIENTED_EDGE ( 'NONE', *, *, #178, .T. ) ;
#30 = ORIENTED_EDGE ( 'NONE', *, *, #37, .F. ) ;
#31 = DATE_AND_TIME ( #36, #171 ) ;
#32 = SECURITY_CLASSIFICATION_LEVEL ( 'unclassified' ) ;
#33 = PLANE ( 'NONE',  #198 ) ;
#34 = DIRECTION ( 'NONE',  ( 1.972936923507067534E-30, -1.000000000000000000, 5.650715934116319579E-16 ) ) ;
#35 = CALENDAR_DATE ( 2021, 26, 11 ) ;
#36 = CALENDAR_DATE ( 2021, 26, 11 ) ;
#37 = EDGE_CURVE ( 'NONE', #94, #94, #117, .T. ) ;
#38 = DATE_TIME_ROLE ( 'creation_date' ) ;
#39 = AXIS2_PLACEMENT_3D ( 'NONE', #162, #230, #58 ) ;
#40 = CC_DESIGN_PERSON_AND_ORGANIZATION_ASSIGNMENT ( #80, #231, ( #15 ) ) ;
#41 = DIRECTION ( 'NONE',  ( 3.491481338843133355E-15, -9.031770143711729009E-17, 1.000000000000000000 ) ) ;
#42 = FACE_OUTER_BOUND ( 'NONE', #93, .T. ) ;
#43 = CALENDAR_DATE ( 2021, 26, 11 ) ;
#44 = CONICAL_SURFACE ( 'NONE', #54, 3.095000000000004636, 0.5235987755982929315 ) ;
#45 = FACE_OUTER_BOUND ( 'NONE', #203, .T. ) ;
#46 = PERSON_AND_ORGANIZATION_ROLE ( 'creator' ) ;
#47 = CARTESIAN_POINT ( 'NONE',  ( 2.779219145719134403E-13, -7.189289034394536528E-15, 79.60000000000000853 ) ) ;
#48 = DIRECTION ( 'NONE',  ( -3.491481338843133355E-15, 9.031770143711729009E-17, -1.000000000000000000 ) ) ;
#49 = EDGE_CURVE ( 'NONE', #52, #52, #86, .T. ) ;
#50 = AXIS2_PLACEMENT_3D ( 'NONE', #157, #220, #189 ) ;
#51 = ORIENTED_EDGE ( 'NONE', *, *, #158, .F. ) ;
#52 = VERTEX_POINT ( 'NONE', #218 ) ;
#53 = EDGE_LOOP ( 'NONE', ( #29 ) ) ;
#54 = AXIS2_PLACEMENT_3D ( 'NONE', #240, #48, #12 ) ;
#55 = ORIENTED_EDGE ( 'NONE', *, *, #81, .F. ) ;
#56 = PERSON_AND_ORGANIZATION_ROLE ( 'design_supplier' ) ;
#57 = ORIENTED_EDGE ( 'NONE', *, *, #217, .F. ) ;
#58 = DIRECTION ( 'NONE',  ( -1.991268440077269621E-30, 1.000000000000000000, -5.604922377954137694E-16 ) ) ;
#59 = COORDINATED_UNIVERSAL_TIME_OFFSET ( 1, 0, .AHEAD. ) ;
#60 = VERTEX_POINT ( 'NONE', #67 ) ;
#61 = AXIS2_PLACEMENT_3D ( 'NONE', #21, #185, #22 ) ;
#62 = AXIS2_PLACEMENT_3D ( 'NONE', #186, #208, #167 ) ;
#63 = DIRECTION ( 'NONE',  ( -3.491481338843133355E-15, -5.650715934116319579E-16, -1.000000000000000000 ) ) ;
#64 = DATE_AND_TIME ( #43, #182 ) ;
#65 = FACE_BOUND ( 'NONE', #205, .T. ) ;
#66 = ADVANCED_BREP_SHAPE_REPRESENTATION ( '321522', ( #226, #151, #91 ), #113 ) ;
#67 = CARTESIAN_POINT ( 'NONE',  ( 1.396592535537253342E-15, 3.095000000000003304, 0.4000000000000000222 ) ) ;
#68 = CONICAL_SURFACE ( 'NONE', #10, 2.864059892324153367, 0.5235987755982969283 ) ;
#69 = DIRECTION ( 'NONE',  ( -3.491481338843133355E-15, -5.650715934116319579E-16, -1.000000000000000000 ) ) ;
#70 = APPROVAL_ROLE ( '' ) ;
#71 = ORIENTED_EDGE ( 'NONE', *, *, #81, .T. ) ;
#72 = EDGE_LOOP ( 'NONE', ( #57 ) ) ;
#73 =( NAMED_UNIT ( * ) SI_UNIT ( $, .STERADIAN. ) SOLID_ANGLE_UNIT ( ) );
#74 = APPROVAL_PERSON_ORGANIZATION ( #199, #84, #150 ) ;
#75 = FACE_OUTER_BOUND ( 'NONE', #215, .T. ) ;
#76 =( NAMED_UNIT ( * ) PLANE_ANGLE_UNIT ( ) SI_UNIT ( $, .RADIAN. ) );
#77 = CARTESIAN_POINT ( 'NONE',  ( 2.793185071074506684E-13, -7.225416114969383207E-15, 80.00000000000000000 ) ) ;
#78 = ADVANCED_FACE ( 'NONE', ( #138 ), #120, .T. ) ;
#79 = DIRECTION ( 'NONE',  ( 1.000000000000000000, 0.0000000000000000000, 0.0000000000000000000 ) ) ;
#80 = PERSON_AND_ORGANIZATION ( #101, #174 ) ;
#81 = EDGE_CURVE ( 'NONE', #128, #128, #125, .T. ) ;
#82 = LOCAL_TIME ( 11, 4, 41.00000000000000000, #176 ) ;
#83 = APPROVAL_STATUS ( 'not_yet_approved' ) ;
#84 = APPROVAL ( #234, 'UNSPECIFIED' ) ;
#85 = APPROVAL_STATUS ( 'not_yet_approved' ) ;
#86 = CIRCLE ( 'NONE', #224, 1.599999999999994982 ) ;
#87 = CC_DESIGN_DATE_AND_TIME_ASSIGNMENT ( #105, #25, ( #19 ) ) ;
#88 = DIRECTION ( 'NONE',  ( 3.491481338843133355E-15, 5.650715934116319579E-16, 1.000000000000000000 ) ) ;
#89 = FACE_OUTER_BOUND ( 'NONE', #129, .T. ) ;
#90 = ADVANCED_FACE ( 'NONE', ( #42 ), #98, .T. ) ;
#91 = AXIS2_PLACEMENT_3D ( 'NONE', #221, #100, #79 ) ;
#92 = PERSON_AND_ORGANIZATION ( #101, #174 ) ;
#93 = EDGE_LOOP ( 'NONE', ( #30 ) ) ;
#94 = VERTEX_POINT ( 'NONE', #225 ) ;
#95 = DIRECTION ( 'NONE',  ( -3.491481338843133355E-15, 9.031770143711729009E-17, -1.000000000000000000 ) ) ;
#96 = LOCAL_TIME ( 11, 4, 41.00000000000000000, #142 ) ;
#97 = ORIENTED_EDGE ( 'NONE', *, *, #49, .T. ) ;
#98 = PLANE ( 'NONE',  #164 ) ;
#99 = APPROVAL_DATE_TIME ( #31, #206 ) ;
#100 = DIRECTION ( 'NONE',  ( 0.0000000000000000000, 0.0000000000000000000, 1.000000000000000000 ) ) ;
#101 = PERSON ( 'UNSPECIFIED', 'UNSPECIFIED', 'UNSPECIFIED', ('UNSPECIFIED'), ('UNSPECIFIED'), ('UNSPECIFIED') ) ;
#102 = APPLICATION_CONTEXT ( 'configuration controlled 3d designs of mechanical parts and assemblies' ) ;
#103 = FACE_OUTER_BOUND ( 'NONE', #72, .T. ) ;
#104 =( LENGTH_UNIT ( ) NAMED_UNIT ( * ) SI_UNIT ( .MILLI., .METRE. ) );
#105 = DATE_AND_TIME ( #1, #82 ) ;
#106 = FACE_BOUND ( 'NONE', #192, .T. ) ;
#107 = APPLICATION_PROTOCOL_DEFINITION ( 'international standard', 'config_control_design', 1994, #102 ) ;
#108 = FACE_BOUND ( 'NONE', #229, .T. ) ;
#109 = AXIS2_PLACEMENT_3D ( 'NONE', #20, #63, #184 ) ;
#110 = CARTESIAN_POINT ( 'NONE',  ( 4.885231259955590439E-14, 1.999999999999990452, 13.99185842870425134 ) ) ;
#111 = CARTESIAN_POINT ( 'NONE',  ( 2.793185071074506684E-13, -7.225416114969383207E-15, 80.00000000000000000 ) ) ;
#112 = AXIS2_PLACEMENT_3D ( 'NONE', #197, #236, #140 ) ;
#113 =( GEOMETRIC_REPRESENTATION_CONTEXT ( 3 ) GLOBAL_UNCERTAINTY_ASSIGNED_CONTEXT ( ( #26 ) ) GLOBAL_UNIT_ASSIGNED_CONTEXT ( ( #104, #76, #73 ) ) REPRESENTATION_CONTEXT ( 'NONE', 'WORKASPACE' ) );
#114 = EDGE_CURVE ( 'NONE', #183, #183, #212, .T. ) ;
#115 = EDGE_LOOP ( 'NONE', ( #135 ) ) ;
#116 = SHAPE_DEFINITION_REPRESENTATION ( #23, #66 ) ;
#117 = CIRCLE ( 'NONE', #170, 3.094999999999996199 ) ;
#118 = AXIS2_PLACEMENT_3D ( 'NONE', #47, #187, #24 ) ;
#119 = CYLINDRICAL_SURFACE ( 'NONE', #62, 3.094999999999999751 ) ;
#120 = PLANE ( 'NONE',  #61 ) ;
#121 = CARTESIAN_POINT ( 'NONE',  ( 4.223038433510810050E-14, -1.092416333869562894E-15, 12.09526279441628382 ) ) ;
#122 = FACE_OUTER_BOUND ( 'NONE', #115, .T. ) ;
#123 = CC_DESIGN_APPROVAL ( #209, ( #15 ) ) ;
#124 = FACE_OUTER_BOUND ( 'NONE', #53, .T. ) ;
#125 = CIRCLE ( 'NONE', #112, 1.999999999999991784 ) ;
#126 = CYLINDRICAL_SURFACE ( 'NONE', #16, 1.999999999999993561 ) ;
#127 = PERSON_AND_ORGANIZATION_ROLE ( 'design_owner' ) ;
#128 = VERTEX_POINT ( 'NONE', #110 ) ;
#129 = EDGE_LOOP ( 'NONE', ( #55 ) ) ;
#130 = COORDINATED_UNIVERSAL_TIME_OFFSET ( 1, 0, .AHEAD. ) ;
#131 = CLOSED_SHELL ( 'NONE', ( #154, #232, #196, #188, #78 ) ) ;
#132 = DIRECTION ( 'NONE',  ( -1.991268440077273825E-30, 1.000000000000000000, -5.604922377954149527E-16 ) ) ;
#133 = LOCAL_TIME ( 11, 4, 41.00000000000000000, #59 ) ;
#134 = ADVANCED_FACE ( 'NONE', ( #75, #4 ), #119, .T. ) ;
#135 = ORIENTED_EDGE ( 'NONE', *, *, #49, .F. ) ;
#136 = DATE_AND_TIME ( #35, #133 ) ;
#137 = APPROVAL_PERSON_ORGANIZATION ( #11, #209, #70 ) ;
#138 = FACE_OUTER_BOUND ( 'NONE', #175, .T. ) ;
#139 = DIRECTION ( 'NONE',  ( 1.972936923507067534E-30, -1.000000000000000000, 5.650715934116319579E-16 ) ) ;
#140 = DIRECTION ( 'NONE',  ( 0.0000000000000000000, 1.000000000000000000, 0.0000000000000000000 ) ) ;
#141 = PERSON_AND_ORGANIZATION ( #101, #174 ) ;
#142 = COORDINATED_UNIVERSAL_TIME_OFFSET ( 1, 0, .AHEAD. ) ;
#143 = CIRCLE ( 'NONE', #118, 1.999999999999995337 ) ;
#144 = DIRECTION ( 'NONE',  ( -3.491481338843133355E-15, 9.031770143711729009E-17, -1.000000000000000000 ) ) ;
#145 = EDGE_LOOP ( 'NONE', ( #51 ) ) ;
#146 = CARTESIAN_POINT ( 'NONE',  ( 2.779219145719134403E-13, -7.189289034394536528E-15, 79.60000000000000853 ) ) ;
#147 = VERTEX_POINT ( 'NONE', #173 ) ;
#148 = DIRECTION ( 'NONE',  ( 0.0000000000000000000, 1.000000000000000000, 0.0000000000000000000 ) ) ;
#149 = PRODUCT_DEFINITION_FORMATION_WITH_SPECIFIED_SOURCE ( 'ANY', '', #222, .NOT_KNOWN. ) ;
#150 = APPROVAL_ROLE ( '' ) ;
#151 = MANIFOLD_SOLID_BREP ( 'Corps-Déplacer/Copier1[2]', #211 ) ;
#152 = ADVANCED_FACE ( 'NONE', ( #163 ), #200, .T. ) ;
#153 = ORIENTED_EDGE ( 'NONE', *, *, #37, .T. ) ;
#154 = ADVANCED_FACE ( 'NONE', ( #122 ), #33, .T. ) ;
#155 = PERSON_AND_ORGANIZATION_ROLE ( 'classification_officer' ) ;
#156 = ORIENTED_EDGE ( 'NONE', *, *, #114, .F. ) ;
#157 = CARTESIAN_POINT ( 'NONE',  ( 5.650609512701998036E-30, 9.145112378425058300E-31, 1.618398886981956456E-15 ) ) ;
#158 = EDGE_CURVE ( 'NONE', #207, #207, #159, .T. ) ;
#159 = CIRCLE ( 'NONE', #235, 3.095000000000004636 ) ;
#160 = COORDINATED_UNIVERSAL_TIME_OFFSET ( 1, 0, .AHEAD. ) ;
#161 = CC_DESIGN_PERSON_AND_ORGANIZATION_ASSIGNMENT ( #141, #46, ( #149 ) ) ;
#162 = CARTESIAN_POINT ( 'NONE',  ( 1.396592535537259456E-15, 2.260286373646537495E-16, 0.4000000000000017431 ) ) ;
#163 = FACE_OUTER_BOUND ( 'NONE', #9, .T. ) ;
#164 = AXIS2_PLACEMENT_3D ( 'NONE', #181, #228, #34 ) ;
#165 = CC_DESIGN_DATE_AND_TIME_ASSIGNMENT ( #136, #38, ( #15 ) ) ;
#166 = AXIS2_PLACEMENT_3D ( 'NONE', #146, #241, #148 ) ;
#167 = DIRECTION ( 'NONE',  ( -1.972936923507067534E-30, 1.000000000000000000, -5.650715934116319579E-16 ) ) ;
#168 = ORIENTED_EDGE ( 'NONE', *, *, #217, .T. ) ;
#169 = DATE_AND_TIME ( #172, #96 ) ;
#170 = AXIS2_PLACEMENT_3D ( 'NONE', #242, #69, #132 ) ;
#171 = LOCAL_TIME ( 11, 4, 41.00000000000000000, #160 ) ;
#172 = CALENDAR_DATE ( 2021, 26, 11 ) ;
#173 = CARTESIAN_POINT ( 'NONE',  ( 2.779219145719134403E-13, 1.999999999999988010, 79.60000000000000853 ) ) ;
#174 = ORGANIZATION ( 'UNSPECIFIED', 'UNSPECIFIED', '' ) ;
#175 = EDGE_LOOP ( 'NONE', ( #2 ) ) ;
#176 = COORDINATED_UNIVERSAL_TIME_OFFSET ( 1, 0, .AHEAD. ) ;
#177 = PRODUCT_RELATED_PRODUCT_CATEGORY ( 'detail', '', ( #222 ) ) ;
#178 = EDGE_CURVE ( 'NONE', #60, #60, #28, .T. ) ;
#179 = PERSON_AND_ORGANIZATION ( #101, #174 ) ;
#180 = DIRECTION ( 'NONE',  ( 0.0000000000000000000, 1.000000000000000000, 0.0000000000000000000 ) ) ;
#181 = CARTESIAN_POINT ( 'NONE',  ( 4.223038433510810050E-14, 6.834689419973236256E-15, 12.09526279441628382 ) ) ;
#182 = LOCAL_TIME ( 11, 4, 41.00000000000000000, #130 ) ;
#183 = VERTEX_POINT ( 'NONE', #3 ) ;
#184 = DIRECTION ( 'NONE',  ( -1.972936923507067534E-30, 1.000000000000000000, -5.650715934116319579E-16 ) ) ;
#185 = DIRECTION ( 'NONE',  ( -3.491481338843133355E-15, 9.031770143711729009E-17, -1.000000000000000000 ) ) ;
#186 = CARTESIAN_POINT ( 'NONE',  ( 0.0000000000000000000, 0.0000000000000000000, 0.0000000000000000000 ) ) ;
#187 = DIRECTION ( 'NONE',  ( -3.491481338843133355E-15, 9.031770143711729009E-17, -1.000000000000000000 ) ) ;
#188 = ADVANCED_FACE ( 'NONE', ( #106, #239 ), #44, .T. ) ;
#189 = DIRECTION ( 'NONE',  ( -1.972936923507067534E-30, 1.000000000000000000, -5.650715934116319579E-16 ) ) ;
#190 = APPLICATION_CONTEXT ( 'configuration controlled 3d designs of mechanical parts and assemblies' ) ;
#191 = CARTESIAN_POINT ( 'NONE',  ( 5.650609512701998036E-30, 9.145112378425058300E-31, 1.618398886981956456E-15 ) ) ;
#192 = EDGE_LOOP ( 'NONE', ( #71 ) ) ;
#193 = DESIGN_CONTEXT ( 'detailed design', #102, 'design' ) ;
#194 = CONICAL_SURFACE ( 'NONE', #166, 1.999999999999995337, 0.7853981633974516097 ) ;
#195 = ORIENTED_EDGE ( 'NONE', *, *, #178, .F. ) ;
#196 = ADVANCED_FACE ( 'NONE', ( #45, #89 ), #126, .T. ) ;
#197 = CARTESIAN_POINT ( 'NONE',  ( 4.885231259955590439E-14, -1.263712492114123682E-15, 13.99185842870425134 ) ) ;
#198 = AXIS2_PLACEMENT_3D ( 'NONE', #77, #41, #6 ) ;
#199 = PERSON_AND_ORGANIZATION ( #101, #174 ) ;
#200 = PLANE ( 'NONE',  #109 ) ;
#201 = DIRECTION ( 'NONE',  ( 3.153425691349006731E-31, 1.000000000000000000, 9.031770143711729009E-17 ) ) ;
#202 = CC_DESIGN_SECURITY_CLASSIFICATION ( #19, ( #149 ) ) ;
#203 = EDGE_LOOP ( 'NONE', ( #168 ) ) ;
#204 = EDGE_LOOP ( 'NONE', ( #195 ) ) ;
#205 = EDGE_LOOP ( 'NONE', ( #97 ) ) ;
#206 = APPROVAL ( #85, 'UNSPECIFIED' ) ;
#207 = VERTEX_POINT ( 'NONE', #5 ) ;
#208 = DIRECTION ( 'NONE',  ( -3.491481338843133355E-15, -5.650715934116319579E-16, -1.000000000000000000 ) ) ;
#209 = APPROVAL ( #83, 'UNSPECIFIED' ) ;
#210 = MECHANICAL_CONTEXT ( 'NONE', #190, 'mechanical' ) ;
#211 = CLOSED_SHELL ( 'NONE', ( #90, #134, #219, #152 ) ) ;
#212 = CIRCLE ( 'NONE', #50, 2.864059892324153367 ) ;
#213 = APPROVAL_DATE_TIME ( #64, #84 ) ;
#214 = DIRECTION ( 'NONE',  ( 0.0000000000000000000, 1.000000000000000000, 0.0000000000000000000 ) ) ;
#215 = EDGE_LOOP ( 'NONE', ( #153 ) ) ;
#216 = APPROVAL_PERSON_ORGANIZATION ( #8, #206, #237 ) ;
#217 = EDGE_CURVE ( 'NONE', #147, #147, #143, .T. ) ;
#218 = CARTESIAN_POINT ( 'NONE',  ( 2.793185071074506684E-13, 1.599999999999987876, 80.00000000000000000 ) ) ;
#219 = ADVANCED_FACE ( 'NONE', ( #124, #108 ), #68, .T. ) ;
#220 = DIRECTION ( 'NONE',  ( -3.491481338843133355E-15, -5.650715934116319579E-16, -1.000000000000000000 ) ) ;
#221 = CARTESIAN_POINT ( 'NONE',  ( 0.0000000000000000000, 0.0000000000000000000, 0.0000000000000000000 ) ) ;
#222 = PRODUCT ( '321522', '321522', '', ( #210 ) ) ;
#223 = CC_DESIGN_PERSON_AND_ORGANIZATION_ASSIGNMENT ( #243, #155, ( #19 ) ) ;
#224 = AXIS2_PLACEMENT_3D ( 'NONE', #111, #95, #214 ) ;
#225 = CARTESIAN_POINT ( 'NONE',  ( 4.223038433510810050E-14, 3.095000000000003304, 12.09526279441628382 ) ) ;
#226 = MANIFOLD_SOLID_BREP ( 'Corps-Déplacer/Copier1[1]', #131 ) ;
#227 = ORIENTED_EDGE ( 'NONE', *, *, #114, .T. ) ;
#228 = DIRECTION ( 'NONE',  ( 3.491481338843133355E-15, 5.650715934116319579E-16, 1.000000000000000000 ) ) ;
#229 = EDGE_LOOP ( 'NONE', ( #156 ) ) ;
#230 = DIRECTION ( 'NONE',  ( -3.491481338843133355E-15, -5.650715934116319579E-16, -1.000000000000000000 ) ) ;
#231 = PERSON_AND_ORGANIZATION_ROLE ( 'creator' ) ;
#232 = ADVANCED_FACE ( 'NONE', ( #65, #103 ), #194, .T. ) ;
#233 = APPROVAL_DATE_TIME ( #169, #209 ) ;
#234 = APPROVAL_STATUS ( 'not_yet_approved' ) ;
#235 = AXIS2_PLACEMENT_3D ( 'NONE', #121, #17, #180 ) ;
#236 = DIRECTION ( 'NONE',  ( -3.491481338843133355E-15, 9.031770143711729009E-17, -1.000000000000000000 ) ) ;
#237 = APPROVAL_ROLE ( '' ) ;
#238 = APPLICATION_PROTOCOL_DEFINITION ( 'international standard', 'config_control_design', 1994, #190 ) ;
#239 = FACE_OUTER_BOUND ( 'NONE', #145, .T. ) ;
#240 = CARTESIAN_POINT ( 'NONE',  ( 4.223038433510810050E-14, -1.092416333869562894E-15, 12.09526279441628382 ) ) ;
#241 = DIRECTION ( 'NONE',  ( -3.491481338843133355E-15, 9.031770143711729009E-17, -1.000000000000000000 ) ) ;
#242 = CARTESIAN_POINT ( 'NONE',  ( 4.223038433510810681E-14, 6.834689419973237834E-15, 12.09526279441628560 ) ) ;
#243 = PERSON_AND_ORGANIZATION ( #101, #174 ) ;
ENDSEC;
END-ISO-10303-21;
