ISO-10303-21;
HEADER;
FILE_DESCRIPTION (( 'STEP AP203' ),
    '1' );
FILE_NAME ('321521.step',
    '2021-11-26T10:04:41',
    ( '' ),
    ( '' ),
    'SwSTEP 2.0',
    'SolidWorks 2019',
    '' );
FILE_SCHEMA (( 'CONFIG_CONTROL_DESIGN' ));
ENDSEC;

DATA;
#1 = ORIENTED_EDGE ( 'NONE', *, *, #71, .T. ) ;
#2 = CC_DESIGN_APPROVAL ( #25, ( #149 ) ) ;
#3 = APPROVAL ( #161, 'UNSPECIFIED' ) ;
#4 = FACE_OUTER_BOUND ( 'NONE', #136, .T. ) ;
#5 = ORIENTED_EDGE ( 'NONE', *, *, #200, .T. ) ;
#6 = DIRECTION ( 'NONE',  ( -1.994490557294222749E-30, 1.000000000000000000, -5.613991831640146547E-16 ) ) ;
#7 = APPROVAL ( #239, 'UNSPECIFIED' ) ;
#8 = COORDINATED_UNIVERSAL_TIME_OFFSET ( 1, 0, .AHEAD. ) ;
#9 = ADVANCED_FACE ( 'NONE', ( #10, #152 ), #205, .T. ) ;
#10 = FACE_OUTER_BOUND ( 'NONE', #20, .T. ) ;
#11 = DIRECTION ( 'NONE',  ( 3.491481338843133355E-15, -9.031770143711729009E-17, 1.000000000000000000 ) ) ;
#12 = AXIS2_PLACEMENT_3D ( 'NONE', #92, #213, #74 ) ;
#13 = DIRECTION ( 'NONE',  ( -1.994490557294226953E-30, 1.000000000000000000, -5.613991831640158380E-16 ) ) ;
#14 = PLANE ( 'NONE',  #123 ) ;
#15 = FACE_BOUND ( 'NONE', #81, .T. ) ;
#16 = CC_DESIGN_PERSON_AND_ORGANIZATION_ASSIGNMENT ( #190, #157, ( #88 ) ) ;
#17 = VERTEX_POINT ( 'NONE', #178 ) ;
#18 = AXIS2_PLACEMENT_3D ( 'NONE', #65, #144, #214 ) ;
#19 = PRODUCT_DEFINITION_SHAPE ( 'NONE', 'NONE',  #88 ) ;
#20 = EDGE_LOOP ( 'NONE', ( #5 ) ) ;
#21 = UNCERTAINTY_MEASURE_WITH_UNIT (LENGTH_MEASURE( 1.000000000000000082E-05 ), #201, 'distance_accuracy_value', 'NONE');
#22 = ORIENTED_EDGE ( 'NONE', *, *, #124, .T. ) ;
#23 = CC_DESIGN_APPROVAL ( #3, ( #88 ) ) ;
#24 = DIRECTION ( 'NONE',  ( -3.491481338843133355E-15, 9.031770143711729009E-17, -1.000000000000000000 ) ) ;
#25 = APPROVAL ( #127, 'UNSPECIFIED' ) ;
#26 = ORGANIZATION ( 'UNSPECIFIED', 'UNSPECIFIED', '' ) ;
#27 = ADVANCED_BREP_SHAPE_REPRESENTATION ( '321521', ( #48, #218, #195 ), #142 ) ;
#28 = ORIENTED_EDGE ( 'NONE', *, *, #66, .T. ) ;
#29 = APPROVAL_ROLE ( '' ) ;
#30 = APPROVAL_PERSON_ORGANIZATION ( #148, #3, #224 ) ;
#31 = FACE_OUTER_BOUND ( 'NONE', #188, .T. ) ;
#32 = FACE_OUTER_BOUND ( 'NONE', #166, .T. ) ;
#33 = CARTESIAN_POINT ( 'NONE',  ( 2.793185071074506684E-13, -7.225416114969383207E-15, 80.00000000000000000 ) ) ;
#34 = CLOSED_SHELL ( 'NONE', ( #64, #46, #184, #212, #108 ) ) ;
#35 = DIRECTION ( 'NONE',  ( -3.491481338843133355E-15, 9.031770143711729009E-17, -1.000000000000000000 ) ) ;
#36 = AXIS2_PLACEMENT_3D ( 'NONE', #225, #11, #156 ) ;
#37 = VERTEX_POINT ( 'NONE', #234 ) ;
#38 = VERTEX_POINT ( 'NONE', #164 ) ;
#39 = CC_DESIGN_PERSON_AND_ORGANIZATION_ASSIGNMENT ( #204, #105, ( #149 ) ) ;
#40 = FACE_OUTER_BOUND ( 'NONE', #109, .T. ) ;
#41 = ORIENTED_EDGE ( 'NONE', *, *, #198, .F. ) ;
#42 = PERSON_AND_ORGANIZATION ( #220, #26 ) ;
#43 = VERTEX_POINT ( 'NONE', #199 ) ;
#44 = DESIGN_CONTEXT ( 'detailed design', #174, 'design' ) ;
#45 = LOCAL_TIME ( 11, 4, 41.00000000000000000, #160 ) ;
#46 = ADVANCED_FACE ( 'NONE', ( #15, #191 ), #93, .T. ) ;
#47 = ORIENTED_EDGE ( 'NONE', *, *, #124, .F. ) ;
#48 = MANIFOLD_SOLID_BREP ( 'Corps-Déplacer/Copier1[1]', #34 ) ;
#49 = AXIS2_PLACEMENT_3D ( 'NONE', #85, #35, #63 ) ;
#50 = ORIENTED_EDGE ( 'NONE', *, *, #77, .F. ) ;
#51 = ADVANCED_FACE ( 'NONE', ( #170, #32 ), #112, .T. ) ;
#52 = DATE_AND_TIME ( #150, #45 ) ;
#53 = CIRCLE ( 'NONE', #118, 1.999999999999991784 ) ;
#54 = CARTESIAN_POINT ( 'NONE',  ( 5.634959566694435134E-30, 9.110430612197986997E-31, 1.613916564297468513E-15 ) ) ;
#55 = CC_DESIGN_DATE_AND_TIME_ASSIGNMENT ( #115, #228, ( #145 ) ) ;
#56 = DATE_AND_TIME ( #151, #186 ) ;
#57 = DIRECTION ( 'NONE',  ( -3.491481338843133355E-15, -5.644920446159321768E-16, -1.000000000000000000 ) ) ;
#58 = DIRECTION ( 'NONE',  ( -3.491481338843133355E-15, 9.031770143711729009E-17, -1.000000000000000000 ) ) ;
#59 = PERSON_AND_ORGANIZATION_ROLE ( 'design_supplier' ) ;
#60 = PLANE ( 'NONE',  #219 ) ;
#61 = FACE_OUTER_BOUND ( 'NONE', #143, .T. ) ;
#62 = AXIS2_PLACEMENT_3D ( 'NONE', #97, #140, #6 ) ;
#63 = DIRECTION ( 'NONE',  ( 0.0000000000000000000, 1.000000000000000000, 0.0000000000000000000 ) ) ;
#64 = ADVANCED_FACE ( 'NONE', ( #31 ), #171, .T. ) ;
#65 = CARTESIAN_POINT ( 'NONE',  ( 0.0000000000000000000, 0.0000000000000000000, 0.0000000000000000000 ) ) ;
#66 = EDGE_CURVE ( 'NONE', #38, #38, #110, .T. ) ;
#67 = APPROVAL_PERSON_ORGANIZATION ( #169, #7, #70 ) ;
#68 = DATE_TIME_ROLE ( 'creation_date' ) ;
#69 = COORDINATED_UNIVERSAL_TIME_OFFSET ( 1, 0, .AHEAD. ) ;
#70 = APPROVAL_ROLE ( '' ) ;
#71 = EDGE_CURVE ( 'NONE', #117, #117, #53, .T. ) ;
#72 = DIRECTION ( 'NONE',  ( -3.491481338843133355E-15, 9.031770143711729009E-17, -1.000000000000000000 ) ) ;
#73 = AXIS2_PLACEMENT_3D ( 'NONE', #75, #158, #138 ) ;
#74 = DIRECTION ( 'NONE',  ( 0.0000000000000000000, 1.000000000000000000, 0.0000000000000000000 ) ) ;
#75 = CARTESIAN_POINT ( 'NONE',  ( 4.226062145047089447E-14, 6.832568269495779068E-15, 12.10392304845413136 ) ) ;
#76 = DIRECTION ( 'NONE',  ( -1.970913439701932748E-30, 1.000000000000000000, -5.644920446159321768E-16 ) ) ;
#77 = EDGE_CURVE ( 'NONE', #121, #121, #137, .T. ) ;
#78 = CLOSED_SHELL ( 'NONE', ( #126, #51, #9, #180 ) ) ;
#79 = LOCAL_TIME ( 11, 4, 41.00000000000000000, #111 ) ;
#80 = CARTESIAN_POINT ( 'NONE',  ( -6.842277657836020854E-46, 2.859059892324153918, 0.0000000000000000000 ) ) ;
#81 = EDGE_LOOP ( 'NONE', ( #22 ) ) ;
#82 = CARTESIAN_POINT ( 'NONE',  ( 2.779219145719134403E-13, -7.189289034394536528E-15, 79.60000000000000853 ) ) ;
#83 = CARTESIAN_POINT ( 'NONE',  ( 1.396592535537253342E-15, 3.090000000000003855, 0.4000000000000000222 ) ) ;
#84 = ORIENTED_EDGE ( 'NONE', *, *, #91, .T. ) ;
#85 = CARTESIAN_POINT ( 'NONE',  ( 4.226062145047088185E-14, -1.093198508108122584E-15, 12.10392304845412781 ) ) ;
#86 = CC_DESIGN_SECURITY_CLASSIFICATION ( #145, ( #149 ) ) ;
#87 = ORIENTED_EDGE ( 'NONE', *, *, #71, .F. ) ;
#88 = PRODUCT_DEFINITION ( 'UNKNOWN', '', #149, #44 ) ;
#89 = AXIS2_PLACEMENT_3D ( 'NONE', #241, #57, #76 ) ;
#90 = DATE_AND_TIME ( #189, #79 ) ;
#91 = EDGE_CURVE ( 'NONE', #43, #43, #207, .T. ) ;
#92 = CARTESIAN_POINT ( 'NONE',  ( 2.779219145719134403E-13, -7.189289034394536528E-15, 79.60000000000000853 ) ) ;
#93 = CONICAL_SURFACE ( 'NONE', #12, 1.999999999999995337, 0.7853981633974516097 ) ;
#94 = DIRECTION ( 'NONE',  ( 0.0000000000000000000, 1.000000000000000000, 0.0000000000000000000 ) ) ;
#95 = PERSON_AND_ORGANIZATION ( #220, #26 ) ;
#96 = LOCAL_TIME ( 11, 4, 41.00000000000000000, #69 ) ;
#97 = CARTESIAN_POINT ( 'NONE',  ( 1.396592535537259456E-15, 2.257968178463738568E-16, 0.4000000000000017431 ) ) ;
#98 = EDGE_LOOP ( 'NONE', ( #28 ) ) ;
#99 = FACE_OUTER_BOUND ( 'NONE', #141, .T. ) ;
#100 = ORIENTED_EDGE ( 'NONE', *, *, #77, .T. ) ;
#101 = DIRECTION ( 'NONE',  ( 0.0000000000000000000, 0.0000000000000000000, 1.000000000000000000 ) ) ;
#102 = CYLINDRICAL_SURFACE ( 'NONE', #18, 1.999999999999993561 ) ;
#103 = EDGE_LOOP ( 'NONE', ( #50 ) ) ;
#104 =( NAMED_UNIT ( * ) PLANE_ANGLE_UNIT ( ) SI_UNIT ( $, .RADIAN. ) );
#105 = PERSON_AND_ORGANIZATION_ROLE ( 'creator' ) ;
#106 = CONICAL_SURFACE ( 'NONE', #49, 3.090000000000005187, 0.5235987755982933756 ) ;
#107 = DATE_AND_TIME ( #154, #96 ) ;
#108 = ADVANCED_FACE ( 'NONE', ( #196 ), #14, .T. ) ;
#109 = EDGE_LOOP ( 'NONE', ( #238 ) ) ;
#110 = CIRCLE ( 'NONE', #119, 3.090000000000005187 ) ;
#111 = COORDINATED_UNIVERSAL_TIME_OFFSET ( 1, 0, .AHEAD. ) ;
#112 = CYLINDRICAL_SURFACE ( 'NONE', #129, 3.089999999999999858 ) ;
#113 = DIRECTION ( 'NONE',  ( 0.0000000000000000000, 1.000000000000000000, 0.0000000000000000000 ) ) ;
#114 = AXIS2_PLACEMENT_3D ( 'NONE', #54, #221, #128 ) ;
#115 = DATE_AND_TIME ( #132, #176 ) ;
#116 = DIRECTION ( 'NONE',  ( -3.491481338843133355E-15, -5.644920446159321768E-16, -1.000000000000000000 ) ) ;
#117 = VERTEX_POINT ( 'NONE', #162 ) ;
#118 = AXIS2_PLACEMENT_3D ( 'NONE', #131, #72, #113 ) ;
#119 = AXIS2_PLACEMENT_3D ( 'NONE', #240, #58, #197 ) ;
#120 = DIRECTION ( 'NONE',  ( -3.491481338843133355E-15, -5.644920446159321768E-16, -1.000000000000000000 ) ) ;
#121 = VERTEX_POINT ( 'NONE', #80 ) ;
#122 = ORIENTED_EDGE ( 'NONE', *, *, #91, .F. ) ;
#123 = AXIS2_PLACEMENT_3D ( 'NONE', #175, #210, #159 ) ;
#124 = EDGE_CURVE ( 'NONE', #37, #37, #216, .T. ) ;
#125 = MECHANICAL_CONTEXT ( 'NONE', #135, 'mechanical' ) ;
#126 = ADVANCED_FACE ( 'NONE', ( #173 ), #242, .T. ) ;
#127 = APPROVAL_STATUS ( 'not_yet_approved' ) ;
#128 = DIRECTION ( 'NONE',  ( 1.970913439701932398E-30, -1.000000000000000000, 5.644920446159321768E-16 ) ) ;
#129 = AXIS2_PLACEMENT_3D ( 'NONE', #208, #226, #193 ) ;
#130 = PRODUCT ( '321521', '321521', '', ( #125 ) ) ;
#131 = CARTESIAN_POINT ( 'NONE',  ( 4.885231259955590439E-14, -1.263712492114123682E-15, 13.99185842870425134 ) ) ;
#132 = CALENDAR_DATE ( 2021, 26, 11 ) ;
#133 = APPROVAL_DATE_TIME ( #56, #3 ) ;
#134 = CARTESIAN_POINT ( 'NONE',  ( 4.226062145047088816E-14, 6.832568269495779068E-15, 12.10392304845412959 ) ) ;
#135 = APPLICATION_CONTEXT ( 'configuration controlled 3d designs of mechanical parts and assemblies' ) ;
#136 = EDGE_LOOP ( 'NONE', ( #183 ) ) ;
#137 = CIRCLE ( 'NONE', #89, 2.859059892324153918 ) ;
#138 = DIRECTION ( 'NONE',  ( 1.970913439701932748E-30, -1.000000000000000000, 5.644920446159321768E-16 ) ) ;
#139 = DIRECTION ( 'NONE',  ( -1.970913439701932748E-30, 1.000000000000000000, -5.644920446159321768E-16 ) ) ;
#140 = DIRECTION ( 'NONE',  ( -3.491481338843133355E-15, -5.644920446159321768E-16, -1.000000000000000000 ) ) ;
#141 = EDGE_LOOP ( 'NONE', ( #87 ) ) ;
#142 =( GEOMETRIC_REPRESENTATION_CONTEXT ( 3 ) GLOBAL_UNCERTAINTY_ASSIGNED_CONTEXT ( ( #21 ) ) GLOBAL_UNIT_ASSIGNED_CONTEXT ( ( #201, #104, #231 ) ) REPRESENTATION_CONTEXT ( 'NONE', 'WORKASPACE' ) );
#143 = EDGE_LOOP ( 'NONE', ( #100 ) ) ;
#144 = DIRECTION ( 'NONE',  ( -3.491481338843133355E-15, 9.031770143711729009E-17, -1.000000000000000000 ) ) ;
#145 = SECURITY_CLASSIFICATION ( '', '', #155 ) ;
#146 = DIRECTION ( 'NONE',  ( 1.000000000000000000, 0.0000000000000000000, 0.0000000000000000000 ) ) ;
#147 = APPROVAL_DATE_TIME ( #90, #25 ) ;
#148 = PERSON_AND_ORGANIZATION ( #220, #26 ) ;
#149 = PRODUCT_DEFINITION_FORMATION_WITH_SPECIFIED_SOURCE ( 'ANY', '', #130, .NOT_KNOWN. ) ;
#150 = CALENDAR_DATE ( 2021, 26, 11 ) ;
#151 = CALENDAR_DATE ( 2021, 26, 11 ) ;
#152 = FACE_BOUND ( 'NONE', #103, .T. ) ;
#153 = PERSON_AND_ORGANIZATION_ROLE ( 'classification_officer' ) ;
#154 = CALENDAR_DATE ( 2021, 26, 11 ) ;
#155 = SECURITY_CLASSIFICATION_LEVEL ( 'unclassified' ) ;
#156 = DIRECTION ( 'NONE',  ( -3.153425691349006731E-31, -1.000000000000000000, -9.031770143711729009E-17 ) ) ;
#157 = PERSON_AND_ORGANIZATION_ROLE ( 'creator' ) ;
#158 = DIRECTION ( 'NONE',  ( 3.491481338843133355E-15, 5.644920446159321768E-16, 1.000000000000000000 ) ) ;
#159 = DIRECTION ( 'NONE',  ( 3.153425691349006731E-31, 1.000000000000000000, 9.031770143711729009E-17 ) ) ;
#160 = COORDINATED_UNIVERSAL_TIME_OFFSET ( 1, 0, .AHEAD. ) ;
#161 = APPROVAL_STATUS ( 'not_yet_approved' ) ;
#162 = CARTESIAN_POINT ( 'NONE',  ( 4.885231259955590439E-14, 1.999999999999990452, 13.99185842870425134 ) ) ;
#163 = CARTESIAN_POINT ( 'NONE',  ( -2.817479783347217567E-30, 2.859059892324153918, -8.069582821487342563E-16 ) ) ;
#164 = CARTESIAN_POINT ( 'NONE',  ( 4.226062145047088185E-14, 3.090000000000003855, 12.10392304845412781 ) ) ;
#165 = CIRCLE ( 'NONE', #232, 1.999999999999995337 ) ;
#166 = EDGE_LOOP ( 'NONE', ( #236 ) ) ;
#167 = EDGE_LOOP ( 'NONE', ( #1 ) ) ;
#168 = APPROVAL_PERSON_ORGANIZATION ( #187, #25, #29 ) ;
#169 = PERSON_AND_ORGANIZATION ( #220, #26 ) ;
#170 = FACE_OUTER_BOUND ( 'NONE', #222, .T. ) ;
#171 = PLANE ( 'NONE',  #36 ) ;
#172 = AXIS2_PLACEMENT_3D ( 'NONE', #134, #116, #13 ) ;
#173 = FACE_OUTER_BOUND ( 'NONE', #203, .T. ) ;
#174 = APPLICATION_CONTEXT ( 'configuration controlled 3d designs of mechanical parts and assemblies' ) ;
#175 = CARTESIAN_POINT ( 'NONE',  ( 4.226062145047088816E-14, 3.090000000000003855, 12.10392304845412959 ) ) ;
#176 = LOCAL_TIME ( 11, 4, 41.00000000000000000, #243 ) ;
#177 = CC_DESIGN_PERSON_AND_ORGANIZATION_ASSIGNMENT ( #42, #185, ( #130 ) ) ;
#178 = CARTESIAN_POINT ( 'NONE',  ( 2.779219145719134403E-13, 1.999999999999988010, 79.60000000000000853 ) ) ;
#179 = EDGE_LOOP ( 'NONE', ( #41 ) ) ;
#180 = ADVANCED_FACE ( 'NONE', ( #61 ), #60, .T. ) ;
#181 = AXIS2_PLACEMENT_3D ( 'NONE', #33, #194, #94 ) ;
#182 = SHAPE_DEFINITION_REPRESENTATION ( #19, #27 ) ;
#183 = ORIENTED_EDGE ( 'NONE', *, *, #198, .T. ) ;
#184 = ADVANCED_FACE ( 'NONE', ( #4, #99 ), #102, .T. ) ;
#185 = PERSON_AND_ORGANIZATION_ROLE ( 'design_owner' ) ;
#186 = LOCAL_TIME ( 11, 4, 41.00000000000000000, #8 ) ;
#187 = PERSON_AND_ORGANIZATION ( #220, #26 ) ;
#188 = EDGE_LOOP ( 'NONE', ( #47 ) ) ;
#189 = CALENDAR_DATE ( 2021, 26, 11 ) ;
#190 = PERSON_AND_ORGANIZATION ( #220, #26 ) ;
#191 = FACE_OUTER_BOUND ( 'NONE', #179, .T. ) ;
#192 = CC_DESIGN_PERSON_AND_ORGANIZATION_ASSIGNMENT ( #223, #153, ( #145 ) ) ;
#193 = DIRECTION ( 'NONE',  ( -1.970913439701932748E-30, 1.000000000000000000, -5.644920446159322754E-16 ) ) ;
#194 = DIRECTION ( 'NONE',  ( -3.491481338843133355E-15, 9.031770143711729009E-17, -1.000000000000000000 ) ) ;
#195 = AXIS2_PLACEMENT_3D ( 'NONE', #202, #101, #146 ) ;
#196 = FACE_OUTER_BOUND ( 'NONE', #98, .T. ) ;
#197 = DIRECTION ( 'NONE',  ( 0.0000000000000000000, 1.000000000000000000, 0.0000000000000000000 ) ) ;
#198 = EDGE_CURVE ( 'NONE', #17, #17, #165, .T. ) ;
#199 = CARTESIAN_POINT ( 'NONE',  ( 4.226062145047088185E-14, 3.090000000000003855, 12.10392304845412781 ) ) ;
#200 = EDGE_CURVE ( 'NONE', #229, #229, #227, .T. ) ;
#201 =( LENGTH_UNIT ( ) NAMED_UNIT ( * ) SI_UNIT ( .MILLI., .METRE. ) );
#202 = CARTESIAN_POINT ( 'NONE',  ( 0.0000000000000000000, 0.0000000000000000000, 0.0000000000000000000 ) ) ;
#203 = EDGE_LOOP ( 'NONE', ( #122 ) ) ;
#204 = PERSON_AND_ORGANIZATION ( #220, #26 ) ;
#205 = CONICAL_SURFACE ( 'NONE', #114, 2.859059892324153918, 0.5235987755982969283 ) ;
#206 = PRODUCT_RELATED_PRODUCT_CATEGORY ( 'detail', '', ( #130 ) ) ;
#207 = CIRCLE ( 'NONE', #172, 3.089999999999996749 ) ;
#208 = CARTESIAN_POINT ( 'NONE',  ( 0.0000000000000000000, 0.0000000000000000000, 0.0000000000000000000 ) ) ;
#209 = CC_DESIGN_DATE_AND_TIME_ASSIGNMENT ( #52, #68, ( #88 ) ) ;
#210 = DIRECTION ( 'NONE',  ( -3.491481338843133355E-15, 9.031770143711729009E-17, -1.000000000000000000 ) ) ;
#211 = APPROVAL_DATE_TIME ( #107, #7 ) ;
#212 = ADVANCED_FACE ( 'NONE', ( #215, #40 ), #106, .T. ) ;
#213 = DIRECTION ( 'NONE',  ( -3.491481338843133355E-15, 9.031770143711729009E-17, -1.000000000000000000 ) ) ;
#214 = DIRECTION ( 'NONE',  ( 3.153425691349006731E-31, 1.000000000000000000, 9.031770143711729009E-17 ) ) ;
#215 = FACE_BOUND ( 'NONE', #167, .T. ) ;
#216 = CIRCLE ( 'NONE', #181, 1.599999999999994982 ) ;
#217 = DIRECTION ( 'NONE',  ( 0.0000000000000000000, 1.000000000000000000, 0.0000000000000000000 ) ) ;
#218 = MANIFOLD_SOLID_BREP ( 'Corps-Déplacer/Copier1[2]', #78 ) ;
#219 = AXIS2_PLACEMENT_3D ( 'NONE', #163, #120, #139 ) ;
#220 = PERSON ( 'UNSPECIFIED', 'UNSPECIFIED', 'UNSPECIFIED', ('UNSPECIFIED'), ('UNSPECIFIED'), ('UNSPECIFIED') ) ;
#221 = DIRECTION ( 'NONE',  ( 3.491481338843133355E-15, 5.644920446159321768E-16, 1.000000000000000000 ) ) ;
#222 = EDGE_LOOP ( 'NONE', ( #84 ) ) ;
#223 = PERSON_AND_ORGANIZATION ( #220, #26 ) ;
#224 = APPROVAL_ROLE ( '' ) ;
#225 = CARTESIAN_POINT ( 'NONE',  ( 2.793185071074506684E-13, -7.225416114969383207E-15, 80.00000000000000000 ) ) ;
#226 = DIRECTION ( 'NONE',  ( -3.491481338843133355E-15, -5.644920446159321768E-16, -1.000000000000000000 ) ) ;
#227 = CIRCLE ( 'NONE', #62, 3.090000000000003411 ) ;
#228 = DATE_TIME_ROLE ( 'classification_date' ) ;
#229 = VERTEX_POINT ( 'NONE', #83 ) ;
#230 = CC_DESIGN_PERSON_AND_ORGANIZATION_ASSIGNMENT ( #95, #59, ( #149 ) ) ;
#231 =( NAMED_UNIT ( * ) SI_UNIT ( $, .STERADIAN. ) SOLID_ANGLE_UNIT ( ) );
#232 = AXIS2_PLACEMENT_3D ( 'NONE', #82, #24, #217 ) ;
#233 = APPLICATION_PROTOCOL_DEFINITION ( 'international standard', 'config_control_design', 1994, #135 ) ;
#234 = CARTESIAN_POINT ( 'NONE',  ( 2.793185071074506684E-13, 1.599999999999987876, 80.00000000000000000 ) ) ;
#235 = CC_DESIGN_APPROVAL ( #7, ( #145 ) ) ;
#236 = ORIENTED_EDGE ( 'NONE', *, *, #200, .F. ) ;
#237 = APPLICATION_PROTOCOL_DEFINITION ( 'international standard', 'config_control_design', 1994, #174 ) ;
#238 = ORIENTED_EDGE ( 'NONE', *, *, #66, .F. ) ;
#239 = APPROVAL_STATUS ( 'not_yet_approved' ) ;
#240 = CARTESIAN_POINT ( 'NONE',  ( 4.226062145047088185E-14, -1.093198508108122584E-15, 12.10392304845412781 ) ) ;
#241 = CARTESIAN_POINT ( 'NONE',  ( 5.634959566694435134E-30, 9.110430612197986997E-31, 1.613916564297468513E-15 ) ) ;
#242 = PLANE ( 'NONE',  #73 ) ;
#243 = COORDINATED_UNIVERSAL_TIME_OFFSET ( 1, 0, .AHEAD. ) ;
ENDSEC;
END-ISO-10303-21;
