ISO-10303-21;
HEADER;
FILE_DESCRIPTION (( 'STEP AP203' ),
    '1' );
FILE_NAME ('321520.step',
    '2021-11-26T10:04:40',
    ( '' ),
    ( '' ),
    'SwSTEP 2.0',
    'SolidWorks 2019',
    '' );
FILE_SCHEMA (( 'CONFIG_CONTROL_DESIGN' ));
ENDSEC;

DATA;
#1 = VERTEX_POINT ( 'NONE', #186 ) ;
#2 = CIRCLE ( 'NONE', #21, 1.999999999999991784 ) ;
#3 = VERTEX_POINT ( 'NONE', #170 ) ;
#4 = DIRECTION ( 'NONE',  ( -1.997723118975412661E-30, 1.000000000000000000, -5.623090683879433441E-16 ) ) ;
#5 = DIRECTION ( 'NONE',  ( -3.491481338843133355E-15, -5.639133245517555464E-16, -1.000000000000000000 ) ) ;
#6 = APPROVAL_PERSON_ORGANIZATION ( #229, #56, #55 ) ;
#7 = FACE_BOUND ( 'NONE', #102, .T. ) ;
#8 = APPROVAL ( #149, 'UNSPECIFIED' ) ;
#9 = PRODUCT_DEFINITION_FORMATION_WITH_SPECIFIED_SOURCE ( 'ANY', '', #235, .NOT_KNOWN. ) ;
#10 = DIRECTION ( 'NONE',  ( 1.968892849397445821E-30, -1.000000000000000000, 5.639133245517555464E-16 ) ) ;
#11 = DIRECTION ( 'NONE',  ( -3.491481338843133355E-15, 9.031770143711729009E-17, -1.000000000000000000 ) ) ;
#12 = AXIS2_PLACEMENT_3D ( 'NONE', #94, #95, #120 ) ;
#13 = MECHANICAL_CONTEXT ( 'NONE', #101, 'mechanical' ) ;
#14 = EDGE_LOOP ( 'NONE', ( #135 ) ) ;
#15 = FACE_OUTER_BOUND ( 'NONE', #54, .T. ) ;
#16 = CC_DESIGN_APPROVAL ( #63, ( #89 ) ) ;
#17 = VERTEX_POINT ( 'NONE', #38 ) ;
#18 = ADVANCED_FACE ( 'NONE', ( #172, #233 ), #208, .T. ) ;
#19 = ORIENTED_EDGE ( 'NONE', *, *, #184, .F. ) ;
#20 =( LENGTH_UNIT ( ) NAMED_UNIT ( * ) SI_UNIT ( .MILLI., .METRE. ) );
#21 = AXIS2_PLACEMENT_3D ( 'NONE', #230, #77, #57 ) ;
#22 = FACE_BOUND ( 'NONE', #222, .T. ) ;
#23 = CC_DESIGN_DATE_AND_TIME_ASSIGNMENT ( #203, #110, ( #89 ) ) ;
#24 = DIRECTION ( 'NONE',  ( 0.0000000000000000000, 1.000000000000000000, 0.0000000000000000000 ) ) ;
#25 = EDGE_LOOP ( 'NONE', ( #19 ) ) ;
#26 = FACE_OUTER_BOUND ( 'NONE', #228, .T. ) ;
#27 = ADVANCED_FACE ( 'NONE', ( #26 ), #174, .T. ) ;
#28 = FACE_OUTER_BOUND ( 'NONE', #39, .T. ) ;
#29 = ORIENTED_EDGE ( 'NONE', *, *, #97, .T. ) ;
#30 = CC_DESIGN_PERSON_AND_ORGANIZATION_ASSIGNMENT ( #179, #148, ( #9 ) ) ;
#31 = DIRECTION ( 'NONE',  ( -3.491481338843133355E-15, 9.031770143711729009E-17, -1.000000000000000000 ) ) ;
#32 = APPLICATION_CONTEXT ( 'configuration controlled 3d designs of mechanical parts and assemblies' ) ;
#33 = CALENDAR_DATE ( 2021, 26, 11 ) ;
#34 = CYLINDRICAL_SURFACE ( 'NONE', #236, 3.084999999999999964 ) ;
#35 = PRODUCT_RELATED_PRODUCT_CATEGORY ( 'detail', '', ( #235 ) ) ;
#36 = EDGE_LOOP ( 'NONE', ( #169 ) ) ;
#37 = CIRCLE ( 'NONE', #201, 3.084999999999996412 ) ;
#38 = CARTESIAN_POINT ( 'NONE',  ( 2.793185071074506684E-13, 1.599999999999987876, 80.00000000000000000 ) ) ;
#39 = EDGE_LOOP ( 'NONE', ( #188 ) ) ;
#40 = ADVANCED_FACE ( 'NONE', ( #7, #176 ), #227, .T. ) ;
#41 = CONICAL_SURFACE ( 'NONE', #86, 2.854059892324153580, 0.5235987755982969283 ) ;
#42 = CC_DESIGN_PERSON_AND_ORGANIZATION_ASSIGNMENT ( #44, #154, ( #235 ) ) ;
#43 = AXIS2_PLACEMENT_3D ( 'NONE', #129, #131, #10 ) ;
#44 = PERSON_AND_ORGANIZATION ( #73, #75 ) ;
#45 = PERSON_AND_ORGANIZATION ( #73, #75 ) ;
#46 = PLANE ( 'NONE',  #43 ) ;
#47 = CC_DESIGN_PERSON_AND_ORGANIZATION_ASSIGNMENT ( #134, #220, ( #89 ) ) ;
#48 = CIRCLE ( 'NONE', #192, 1.999999999999995337 ) ;
#49 = COORDINATED_UNIVERSAL_TIME_OFFSET ( 1, 0, .AHEAD. ) ;
#50 = FACE_OUTER_BOUND ( 'NONE', #137, .T. ) ;
#51 = DATE_AND_TIME ( #225, #187 ) ;
#52 = PLANE ( 'NONE',  #122 ) ;
#53 = VERTEX_POINT ( 'NONE', #159 ) ;
#54 = EDGE_LOOP ( 'NONE', ( #119 ) ) ;
#55 = APPROVAL_ROLE ( '' ) ;
#56 = APPROVAL ( #118, 'UNSPECIFIED' ) ;
#57 = DIRECTION ( 'NONE',  ( 0.0000000000000000000, 1.000000000000000000, 0.0000000000000000000 ) ) ;
#58 = AXIS2_PLACEMENT_3D ( 'NONE', #195, #78, #231 ) ;
#59 = EDGE_CURVE ( 'NONE', #226, #226, #164, .T. ) ;
#60 = APPROVAL_DATE_TIME ( #234, #56 ) ;
#61 = DIRECTION ( 'NONE',  ( 0.0000000000000000000, 1.000000000000000000, 0.0000000000000000000 ) ) ;
#62 = CARTESIAN_POINT ( 'NONE',  ( 2.779219145719134403E-13, -7.189289034394536528E-15, 79.60000000000000853 ) ) ;
#63 = APPROVAL ( #71, 'UNSPECIFIED' ) ;
#64 = DATE_AND_TIME ( #178, #150 ) ;
#65 = PERSON_AND_ORGANIZATION_ROLE ( 'design_supplier' ) ;
#66 = DIRECTION ( 'NONE',  ( 0.0000000000000000000, 1.000000000000000000, 0.0000000000000000000 ) ) ;
#67 = AXIS2_PLACEMENT_3D ( 'NONE', #121, #196, #104 ) ;
#68 = CC_DESIGN_APPROVAL ( #56, ( #117 ) ) ;
#69 = DIRECTION ( 'NONE',  ( -3.491481338843133355E-15, -5.639133245517555464E-16, -1.000000000000000000 ) ) ;
#70 = CARTESIAN_POINT ( 'NONE',  ( 2.793185071074506684E-13, -7.225416114969383207E-15, 80.00000000000000000 ) ) ;
#71 = APPROVAL_STATUS ( 'not_yet_approved' ) ;
#72 = AXIS2_PLACEMENT_3D ( 'NONE', #193, #139, #24 ) ;
#73 = PERSON ( 'UNSPECIFIED', 'UNSPECIFIED', 'UNSPECIFIED', ('UNSPECIFIED'), ('UNSPECIFIED'), ('UNSPECIFIED') ) ;
#74 = MANIFOLD_SOLID_BREP ( 'Corps-Déplacer/Copier1[2]', #80 ) ;
#75 = ORGANIZATION ( 'UNSPECIFIED', 'UNSPECIFIED', '' ) ;
#76 = EDGE_CURVE ( 'NONE', #116, #116, #98, .T. ) ;
#77 = DIRECTION ( 'NONE',  ( -3.491481338843133355E-15, 9.031770143711729009E-17, -1.000000000000000000 ) ) ;
#78 = DIRECTION ( 'NONE',  ( -3.491481338843133355E-15, 9.031770143711729009E-17, -1.000000000000000000 ) ) ;
#79 = APPROVAL_PERSON_ORGANIZATION ( #182, #8, #156 ) ;
#80 = CLOSED_SHELL ( 'NONE', ( #113, #127, #91, #160 ) ) ;
#81 = CARTESIAN_POINT ( 'NONE',  ( 1.396592535537259456E-15, 2.255653298207031948E-16, 0.4000000000000017431 ) ) ;
#82 = CALENDAR_DATE ( 2021, 26, 11 ) ;
#83 = MANIFOLD_SOLID_BREP ( 'Corps-Déplacer/Copier1[1]', #88 ) ;
#84 = DIRECTION ( 'NONE',  ( 1.968892849397445821E-30, -1.000000000000000000, 5.639133245517555464E-16 ) ) ;
#85 = CIRCLE ( 'NONE', #183, 1.599999999999994982 ) ;
#86 = AXIS2_PLACEMENT_3D ( 'NONE', #161, #214, #84 ) ;
#87 = DIRECTION ( 'NONE',  ( -3.491481338843133355E-15, -5.639133245517555464E-16, -1.000000000000000000 ) ) ;
#88 = CLOSED_SHELL ( 'NONE', ( #199, #18, #108, #40, #27 ) ) ;
#89 = PRODUCT_DEFINITION ( 'UNKNOWN', '', #9, #93 ) ;
#90 = APPROVAL_DATE_TIME ( #64, #8 ) ;
#91 = ADVANCED_FACE ( 'NONE', ( #28, #22 ), #41, .T. ) ;
#92 = CARTESIAN_POINT ( 'NONE',  ( 0.0000000000000000000, 0.0000000000000000000, 0.0000000000000000000 ) ) ;
#93 = DESIGN_CONTEXT ( 'detailed design', #32, 'design' ) ;
#94 = CARTESIAN_POINT ( 'NONE',  ( 5.619338113749070076E-30, 9.075860157839436774E-31, 1.609442402350339024E-15 ) ) ;
#95 = DIRECTION ( 'NONE',  ( -3.491481338843133355E-15, -5.639133245517555464E-16, -1.000000000000000000 ) ) ;
#96 = ORIENTED_EDGE ( 'NONE', *, *, #144, .T. ) ;
#97 = EDGE_CURVE ( 'NONE', #1, #1, #2, .T. ) ;
#98 = CIRCLE ( 'NONE', #132, 3.085000000000004849 ) ;
#99 = ORIENTED_EDGE ( 'NONE', *, *, #205, .T. ) ;
#100 = DIRECTION ( 'NONE',  ( 0.0000000000000000000, 1.000000000000000000, 0.0000000000000000000 ) ) ;
#101 = APPLICATION_CONTEXT ( 'configuration controlled 3d designs of mechanical parts and assemblies' ) ;
#102 = EDGE_LOOP ( 'NONE', ( #29 ) ) ;
#103 = ORIENTED_EDGE ( 'NONE', *, *, #205, .F. ) ;
#104 = DIRECTION ( 'NONE',  ( 3.153425691349006731E-31, 1.000000000000000000, 9.031770143711729009E-17 ) ) ;
#105 = PERSON_AND_ORGANIZATION_ROLE ( 'classification_officer' ) ;
#106 = AXIS2_PLACEMENT_3D ( 'NONE', #81, #5, #4 ) ;
#107 = DIRECTION ( 'NONE',  ( -3.491481338843133355E-15, -5.639133245517555464E-16, -1.000000000000000000 ) ) ;
#108 = ADVANCED_FACE ( 'NONE', ( #213, #138 ), #123, .T. ) ;
#109 = FACE_OUTER_BOUND ( 'NONE', #25, .T. ) ;
#110 = DATE_TIME_ROLE ( 'creation_date' ) ;
#111 = DIRECTION ( 'NONE',  ( -1.968892849397445821E-30, 1.000000000000000000, -5.639133245517555464E-16 ) ) ;
#112 = DATE_AND_TIME ( #33, #216 ) ;
#113 = ADVANCED_FACE ( 'NONE', ( #109 ), #46, .T. ) ;
#114 = UNCERTAINTY_MEASURE_WITH_UNIT (LENGTH_MEASURE( 1.000000000000000082E-05 ), #20, 'distance_accuracy_value', 'NONE');
#115 = COORDINATED_UNIVERSAL_TIME_OFFSET ( 1, 0, .AHEAD. ) ;
#116 = VERTEX_POINT ( 'NONE', #210 ) ;
#117 = SECURITY_CLASSIFICATION ( '', '', #130 ) ;
#118 = APPROVAL_STATUS ( 'not_yet_approved' ) ;
#119 = ORIENTED_EDGE ( 'NONE', *, *, #184, .T. ) ;
#120 = DIRECTION ( 'NONE',  ( -1.968892849397445821E-30, 1.000000000000000000, -5.639133245517555464E-16 ) ) ;
#121 = CARTESIAN_POINT ( 'NONE',  ( 4.229085856583365058E-14, 3.085000000000003517, 12.11258330249197179 ) ) ;
#122 = AXIS2_PLACEMENT_3D ( 'NONE', #204, #107, #111 ) ;
#123 = CYLINDRICAL_SURFACE ( 'NONE', #58, 1.999999999999993561 ) ;
#124 = ORIENTED_EDGE ( 'NONE', *, *, #173, .T. ) ;
#125 = EDGE_LOOP ( 'NONE', ( #190 ) ) ;
#126 =( GEOMETRIC_REPRESENTATION_CONTEXT ( 3 ) GLOBAL_UNCERTAINTY_ASSIGNED_CONTEXT ( ( #114 ) ) GLOBAL_UNIT_ASSIGNED_CONTEXT ( ( #20, #207, #189 ) ) REPRESENTATION_CONTEXT ( 'NONE', 'WORKASPACE' ) );
#127 = ADVANCED_FACE ( 'NONE', ( #15, #50 ), #34, .T. ) ;
#128 = DIRECTION ( 'NONE',  ( 3.491481338843133355E-15, -9.031770143711729009E-17, 1.000000000000000000 ) ) ;
#129 = CARTESIAN_POINT ( 'NONE',  ( 4.229085856583365689E-14, 6.830447119018332135E-15, 12.11258330249197357 ) ) ;
#130 = SECURITY_CLASSIFICATION_LEVEL ( 'unclassified' ) ;
#131 = DIRECTION ( 'NONE',  ( 3.491481338843133355E-15, 5.639133245517555464E-16, 1.000000000000000000 ) ) ;
#132 = AXIS2_PLACEMENT_3D ( 'NONE', #142, #163, #61 ) ;
#133 = COORDINATED_UNIVERSAL_TIME_OFFSET ( 1, 0, .AHEAD. ) ;
#134 = PERSON_AND_ORGANIZATION ( #73, #75 ) ;
#135 = ORIENTED_EDGE ( 'NONE', *, *, #76, .F. ) ;
#136 = AXIS2_PLACEMENT_3D ( 'NONE', #70, #128, #202 ) ;
#137 = EDGE_LOOP ( 'NONE', ( #158 ) ) ;
#138 = FACE_OUTER_BOUND ( 'NONE', #36, .T. ) ;
#139 = DIRECTION ( 'NONE',  ( -3.491481338843133355E-15, 9.031770143711729009E-17, -1.000000000000000000 ) ) ;
#140 = ORIENTED_EDGE ( 'NONE', *, *, #76, .T. ) ;
#141 = SHAPE_DEFINITION_REPRESENTATION ( #177, #232 ) ;
#142 = CARTESIAN_POINT ( 'NONE',  ( 4.229085856583365689E-14, -1.093980682346682078E-15, 12.11258330249197357 ) ) ;
#143 = PERSON_AND_ORGANIZATION ( #73, #75 ) ;
#144 = EDGE_CURVE ( 'NONE', #243, #243, #48, .T. ) ;
#145 = AXIS2_PLACEMENT_3D ( 'NONE', #165, #151, #223 ) ;
#146 = FACE_OUTER_BOUND ( 'NONE', #125, .T. ) ;
#147 = FACE_OUTER_BOUND ( 'NONE', #242, .T. ) ;
#148 = PERSON_AND_ORGANIZATION_ROLE ( 'creator' ) ;
#149 = APPROVAL_STATUS ( 'not_yet_approved' ) ;
#150 = LOCAL_TIME ( 11, 4, 40.00000000000000000, #219 ) ;
#151 = DIRECTION ( 'NONE',  ( 0.0000000000000000000, 0.0000000000000000000, 1.000000000000000000 ) ) ;
#152 = CARTESIAN_POINT ( 'NONE',  ( 2.779219145719134403E-13, -7.189289034394536528E-15, 79.60000000000000853 ) ) ;
#153 = EDGE_LOOP ( 'NONE', ( #124 ) ) ;
#154 = PERSON_AND_ORGANIZATION_ROLE ( 'design_owner' ) ;
#155 = EDGE_LOOP ( 'NONE', ( #197 ) ) ;
#156 = APPROVAL_ROLE ( '' ) ;
#157 = CARTESIAN_POINT ( 'NONE',  ( 1.396592535537253342E-15, 3.085000000000003517, 0.4000000000000000222 ) ) ;
#158 = ORIENTED_EDGE ( 'NONE', *, *, #59, .F. ) ;
#159 = CARTESIAN_POINT ( 'NONE',  ( 0.0000000000000000000, 2.854059892324153580, 0.0000000000000000000 ) ) ;
#160 = ADVANCED_FACE ( 'NONE', ( #147 ), #52, .T. ) ;
#161 = CARTESIAN_POINT ( 'NONE',  ( 5.619338113749070076E-30, 9.075860157839436774E-31, 1.609442402350339024E-15 ) ) ;
#162 = LOCAL_TIME ( 11, 4, 40.00000000000000000, #115 ) ;
#163 = DIRECTION ( 'NONE',  ( -3.491481338843133355E-15, 9.031770143711729009E-17, -1.000000000000000000 ) ) ;
#164 = CIRCLE ( 'NONE', #106, 3.085000000000003073 ) ;
#165 = CARTESIAN_POINT ( 'NONE',  ( 0.0000000000000000000, 0.0000000000000000000, 0.0000000000000000000 ) ) ;
#166 = LOCAL_TIME ( 11, 4, 40.00000000000000000, #133 ) ;
#167 = CARTESIAN_POINT ( 'NONE',  ( 2.793185071074506684E-13, -7.225416114969383207E-15, 80.00000000000000000 ) ) ;
#168 = CC_DESIGN_PERSON_AND_ORGANIZATION_ASSIGNMENT ( #143, #105, ( #117 ) ) ;
#169 = ORIENTED_EDGE ( 'NONE', *, *, #97, .F. ) ;
#170 = CARTESIAN_POINT ( 'NONE',  ( 4.229085856583365689E-14, 3.085000000000003517, 12.11258330249197357 ) ) ;
#171 = APPLICATION_PROTOCOL_DEFINITION ( 'international standard', 'config_control_design', 1994, #101 ) ;
#172 = FACE_BOUND ( 'NONE', #153, .T. ) ;
#173 = EDGE_CURVE ( 'NONE', #17, #17, #85, .T. ) ;
#174 = PLANE ( 'NONE',  #67 ) ;
#175 = APPROVAL_PERSON_ORGANIZATION ( #238, #63, #221 ) ;
#176 = FACE_OUTER_BOUND ( 'NONE', #14, .T. ) ;
#177 = PRODUCT_DEFINITION_SHAPE ( 'NONE', 'NONE',  #89 ) ;
#178 = CALENDAR_DATE ( 2021, 26, 11 ) ;
#179 = PERSON_AND_ORGANIZATION ( #73, #75 ) ;
#180 = CARTESIAN_POINT ( 'NONE',  ( 4.229085856583366320E-14, 6.830447119018332924E-15, 12.11258330249197535 ) ) ;
#181 = CALENDAR_DATE ( 2021, 26, 11 ) ;
#182 = PERSON_AND_ORGANIZATION ( #73, #75 ) ;
#183 = AXIS2_PLACEMENT_3D ( 'NONE', #167, #31, #66 ) ;
#184 = EDGE_CURVE ( 'NONE', #3, #3, #37, .T. ) ;
#185 = DATE_TIME_ROLE ( 'classification_date' ) ;
#186 = CARTESIAN_POINT ( 'NONE',  ( 4.885231259955590439E-14, 1.999999999999990452, 13.99185842870425134 ) ) ;
#187 = LOCAL_TIME ( 11, 4, 40.00000000000000000, #49 ) ;
#188 = ORIENTED_EDGE ( 'NONE', *, *, #59, .T. ) ;
#189 =( NAMED_UNIT ( * ) SI_UNIT ( $, .STERADIAN. ) SOLID_ANGLE_UNIT ( ) );
#190 = ORIENTED_EDGE ( 'NONE', *, *, #173, .F. ) ;
#191 = CARTESIAN_POINT ( 'NONE',  ( 2.779219145719134403E-13, 1.999999999999988010, 79.60000000000000853 ) ) ;
#192 = AXIS2_PLACEMENT_3D ( 'NONE', #152, #11, #224 ) ;
#193 = CARTESIAN_POINT ( 'NONE',  ( 4.229085856583365689E-14, -1.093980682346682078E-15, 12.11258330249197357 ) ) ;
#194 = AXIS2_PLACEMENT_3D ( 'NONE', #62, #198, #100 ) ;
#195 = CARTESIAN_POINT ( 'NONE',  ( 0.0000000000000000000, 0.0000000000000000000, 0.0000000000000000000 ) ) ;
#196 = DIRECTION ( 'NONE',  ( -3.491481338843133355E-15, 9.031770143711729009E-17, -1.000000000000000000 ) ) ;
#197 = ORIENTED_EDGE ( 'NONE', *, *, #144, .F. ) ;
#198 = DIRECTION ( 'NONE',  ( -3.491481338843133355E-15, 9.031770143711729009E-17, -1.000000000000000000 ) ) ;
#199 = ADVANCED_FACE ( 'NONE', ( #146 ), #218, .T. ) ;
#200 = COORDINATED_UNIVERSAL_TIME_OFFSET ( 1, 0, .AHEAD. ) ;
#201 = AXIS2_PLACEMENT_3D ( 'NONE', #180, #87, #237 ) ;
#202 = DIRECTION ( 'NONE',  ( -3.153425691349006731E-31, -1.000000000000000000, -9.031770143711729009E-17 ) ) ;
#203 = DATE_AND_TIME ( #181, #162 ) ;
#204 = CARTESIAN_POINT ( 'NONE',  ( -2.809669056874535038E-30, 2.854059892324153580, -8.047212011751695119E-16 ) ) ;
#205 = EDGE_CURVE ( 'NONE', #53, #53, #212, .T. ) ;
#206 = APPROVAL_DATE_TIME ( #51, #63 ) ;
#207 =( NAMED_UNIT ( * ) PLANE_ANGLE_UNIT ( ) SI_UNIT ( $, .RADIAN. ) );
#208 = CONICAL_SURFACE ( 'NONE', #194, 1.999999999999995337, 0.7853981633974516097 ) ;
#209 = CC_DESIGN_SECURITY_CLASSIFICATION ( #117, ( #9 ) ) ;
#210 = CARTESIAN_POINT ( 'NONE',  ( 4.229085856583365689E-14, 3.085000000000003517, 12.11258330249197357 ) ) ;
#211 = CC_DESIGN_PERSON_AND_ORGANIZATION_ASSIGNMENT ( #45, #65, ( #9 ) ) ;
#212 = CIRCLE ( 'NONE', #12, 2.854059892324153580 ) ;
#213 = FACE_OUTER_BOUND ( 'NONE', #215, .T. ) ;
#214 = DIRECTION ( 'NONE',  ( 3.491481338843133355E-15, 5.639133245517555464E-16, 1.000000000000000000 ) ) ;
#215 = EDGE_LOOP ( 'NONE', ( #96 ) ) ;
#216 = LOCAL_TIME ( 11, 4, 40.00000000000000000, #200 ) ;
#217 = CC_DESIGN_APPROVAL ( #8, ( #9 ) ) ;
#218 = PLANE ( 'NONE',  #136 ) ;
#219 = COORDINATED_UNIVERSAL_TIME_OFFSET ( 1, 0, .AHEAD. ) ;
#220 = PERSON_AND_ORGANIZATION_ROLE ( 'creator' ) ;
#221 = APPROVAL_ROLE ( '' ) ;
#222 = EDGE_LOOP ( 'NONE', ( #103 ) ) ;
#223 = DIRECTION ( 'NONE',  ( 1.000000000000000000, 0.0000000000000000000, 0.0000000000000000000 ) ) ;
#224 = DIRECTION ( 'NONE',  ( 0.0000000000000000000, 1.000000000000000000, 0.0000000000000000000 ) ) ;
#225 = CALENDAR_DATE ( 2021, 26, 11 ) ;
#226 = VERTEX_POINT ( 'NONE', #157 ) ;
#227 = CONICAL_SURFACE ( 'NONE', #72, 3.085000000000004849, 0.5235987755982933756 ) ;
#228 = EDGE_LOOP ( 'NONE', ( #140 ) ) ;
#229 = PERSON_AND_ORGANIZATION ( #73, #75 ) ;
#230 = CARTESIAN_POINT ( 'NONE',  ( 4.885231259955590439E-14, -1.263712492114123682E-15, 13.99185842870425134 ) ) ;
#231 = DIRECTION ( 'NONE',  ( 3.153425691349006731E-31, 1.000000000000000000, 9.031770143711729009E-17 ) ) ;
#232 = ADVANCED_BREP_SHAPE_REPRESENTATION ( '321520', ( #83, #74, #145 ), #126 ) ;
#233 = FACE_OUTER_BOUND ( 'NONE', #155, .T. ) ;
#234 = DATE_AND_TIME ( #82, #166 ) ;
#235 = PRODUCT ( '321520', '321520', '', ( #13 ) ) ;
#236 = AXIS2_PLACEMENT_3D ( 'NONE', #92, #69, #241 ) ;
#237 = DIRECTION ( 'NONE',  ( -1.997723118975417215E-30, 1.000000000000000000, -5.623090683879446260E-16 ) ) ;
#238 = PERSON_AND_ORGANIZATION ( #73, #75 ) ;
#239 = CC_DESIGN_DATE_AND_TIME_ASSIGNMENT ( #112, #185, ( #117 ) ) ;
#240 = APPLICATION_PROTOCOL_DEFINITION ( 'international standard', 'config_control_design', 1994, #32 ) ;
#241 = DIRECTION ( 'NONE',  ( -1.968892849397445821E-30, 1.000000000000000000, -5.639133245517555464E-16 ) ) ;
#242 = EDGE_LOOP ( 'NONE', ( #99 ) ) ;
#243 = VERTEX_POINT ( 'NONE', #191 ) ;
ENDSEC;
END-ISO-10303-21;
