ISO-10303-21;
HEADER;
FILE_DESCRIPTION (( 'STEP AP203' ),
    '1' );
FILE_NAME ('321519.step',
    '2021-11-26T10:04:40',
    ( '' ),
    ( '' ),
    'SwSTEP 2.0',
    'SolidWorks 2019',
    '' );
FILE_SCHEMA (( 'CONFIG_CONTROL_DESIGN' ));
ENDSEC;

DATA;
#1 = AXIS2_PLACEMENT_3D ( 'NONE', #220, #148, #58 ) ;
#2 = EDGE_LOOP ( 'NONE', ( #134 ) ) ;
#3 = COORDINATED_UNIVERSAL_TIME_OFFSET ( 1, 0, .AHEAD. ) ;
#4 = ORIENTED_EDGE ( 'NONE', *, *, #126, .F. ) ;
#5 = ORIENTED_EDGE ( 'NONE', *, *, #149, .T. ) ;
#6 = DIRECTION ( 'NONE',  ( 0.0000000000000000000, 0.0000000000000000000, 1.000000000000000000 ) ) ;
#7 = AXIS2_PLACEMENT_3D ( 'NONE', #211, #210, #153 ) ;
#8 =( LENGTH_UNIT ( ) NAMED_UNIT ( * ) SI_UNIT ( .MILLI., .METRE. ) );
#9 = DIRECTION ( 'NONE',  ( 3.491481338843133355E-15, 5.633354314427920175E-16, 1.000000000000000000 ) ) ;
#10 = EDGE_LOOP ( 'NONE', ( #91 ) ) ;
#11 = DIRECTION ( 'NONE',  ( 0.0000000000000000000, 1.000000000000000000, 0.0000000000000000000 ) ) ;
#12 = ORIENTED_EDGE ( 'NONE', *, *, #66, .T. ) ;
#13 = CARTESIAN_POINT ( 'NONE',  ( 2.793185071074506684E-13, -7.225416114969383207E-15, 80.00000000000000000 ) ) ;
#14 = CALENDAR_DATE ( 2021, 26, 11 ) ;
#15 = ORIENTED_EDGE ( 'NONE', *, *, #131, .T. ) ;
#16 = PLANE ( 'NONE',  #204 ) ;
#17 = DIRECTION ( 'NONE',  ( -1.966875146391653479E-30, 1.000000000000000000, -5.633354314427920175E-16 ) ) ;
#18 = COORDINATED_UNIVERSAL_TIME_OFFSET ( 1, 0, .AHEAD. ) ;
#19 = SECURITY_CLASSIFICATION ( '', '', #232 ) ;
#20 = CARTESIAN_POINT ( 'NONE',  ( 1.396592535537253539E-15, 3.080000000000003624, 0.4000000000000000222 ) ) ;
#21 = PRODUCT_RELATED_PRODUCT_CATEGORY ( 'detail', '', ( #189 ) ) ;
#22 = CIRCLE ( 'NONE', #137, 1.599999999999994982 ) ;
#23 = DIRECTION ( 'NONE',  ( 3.153425691349006731E-31, 1.000000000000000000, 9.031770143711729009E-17 ) ) ;
#24 = CALENDAR_DATE ( 2021, 26, 11 ) ;
#25 = CC_DESIGN_SECURITY_CLASSIFICATION ( #19, ( #123 ) ) ;
#26 = CARTESIAN_POINT ( 'NONE',  ( 4.232109568119642563E-14, 3.080000000000003624, 12.12124355652981578 ) ) ;
#27 = CARTESIAN_POINT ( 'NONE',  ( 4.232109568119643825E-14, 3.080000000000003624, 12.12124355652981933 ) ) ;
#28 = CC_DESIGN_PERSON_AND_ORGANIZATION_ASSIGNMENT ( #147, #53, ( #123 ) ) ;
#29 = EDGE_LOOP ( 'NONE', ( #130 ) ) ;
#30 = COORDINATED_UNIVERSAL_TIME_OFFSET ( 1, 0, .AHEAD. ) ;
#31 = APPROVAL_DATE_TIME ( #144, #77 ) ;
#32 = DIRECTION ( 'NONE',  ( -3.491481338843133355E-15, -5.633354314427920175E-16, -1.000000000000000000 ) ) ;
#33 = DIRECTION ( 'NONE',  ( -3.491481338843133355E-15, 9.031770143711729009E-17, -1.000000000000000000 ) ) ;
#34 = UNCERTAINTY_MEASURE_WITH_UNIT (LENGTH_MEASURE( 1.000000000000000082E-05 ), #8, 'distance_accuracy_value', 'NONE');
#35 = FACE_OUTER_BOUND ( 'NONE', #221, .T. ) ;
#36 = DIRECTION ( 'NONE',  ( 0.0000000000000000000, 1.000000000000000000, 0.0000000000000000000 ) ) ;
#37 = DESIGN_CONTEXT ( 'detailed design', #207, 'design' ) ;
#38 = DIRECTION ( 'NONE',  ( -3.153425691349006731E-31, -1.000000000000000000, -9.031770143711729009E-17 ) ) ;
#39 = CIRCLE ( 'NONE', #61, 2.849059892324154131 ) ;
#40 = EDGE_LOOP ( 'NONE', ( #146 ) ) ;
#41 = PRODUCT_DEFINITION ( 'UNKNOWN', '', #123, #37 ) ;
#42 = FACE_BOUND ( 'NONE', #97, .T. ) ;
#43 = AXIS2_PLACEMENT_3D ( 'NONE', #118, #136, #240 ) ;
#44 = AXIS2_PLACEMENT_3D ( 'NONE', #52, #72, #133 ) ;
#45 = EDGE_CURVE ( 'NONE', #197, #197, #169, .T. ) ;
#46 = ORIENTED_EDGE ( 'NONE', *, *, #98, .F. ) ;
#47 = DATE_AND_TIME ( #75, #199 ) ;
#48 = PLANE ( 'NONE',  #170 ) ;
#49 = APPROVAL_STATUS ( 'not_yet_approved' ) ;
#50 = AXIS2_PLACEMENT_3D ( 'NONE', #13, #57, #38 ) ;
#51 = AXIS2_PLACEMENT_3D ( 'NONE', #150, #9, #70 ) ;
#52 = CARTESIAN_POINT ( 'NONE',  ( 4.232109568119644456E-14, 6.828325968540889146E-15, 12.12124355652982111 ) ) ;
#53 = PERSON_AND_ORGANIZATION_ROLE ( 'design_supplier' ) ;
#54 = CARTESIAN_POINT ( 'NONE',  ( -2.801872546396829549E-30, 2.849059892324154131, -8.024881918243909049E-16 ) ) ;
#55 = DIRECTION ( 'NONE',  ( -3.491481338843133355E-15, 9.031770143711729009E-17, -1.000000000000000000 ) ) ;
#56 = LOCAL_TIME ( 11, 4, 40.00000000000000000, #3 ) ;
#57 = DIRECTION ( 'NONE',  ( 3.491481338843133355E-15, -9.031770143711729009E-17, 1.000000000000000000 ) ) ;
#58 = DIRECTION ( 'NONE',  ( -1.966875146391653479E-30, 1.000000000000000000, -5.633354314427920175E-16 ) ) ;
#59 = DATE_TIME_ROLE ( 'classification_date' ) ;
#60 = EDGE_LOOP ( 'NONE', ( #132 ) ) ;
#61 = AXIS2_PLACEMENT_3D ( 'NONE', #227, #32, #17 ) ;
#62 = CIRCLE ( 'NONE', #143, 1.999999999999995337 ) ;
#63 = CARTESIAN_POINT ( 'NONE',  ( 2.779219145719134403E-13, 1.999999999999988010, 79.60000000000000853 ) ) ;
#64 = PERSON ( 'UNSPECIFIED', 'UNSPECIFIED', 'UNSPECIFIED', ('UNSPECIFIED'), ('UNSPECIFIED'), ('UNSPECIFIED') ) ;
#65 = PERSON_AND_ORGANIZATION_ROLE ( 'classification_officer' ) ;
#66 = EDGE_CURVE ( 'NONE', #125, #125, #62, .T. ) ;
#67 = ADVANCED_FACE ( 'NONE', ( #167 ), #16, .T. ) ;
#68 = DIRECTION ( 'NONE',  ( 0.0000000000000000000, 1.000000000000000000, 0.0000000000000000000 ) ) ;
#69 = PERSON_AND_ORGANIZATION_ROLE ( 'creator' ) ;
#70 = DIRECTION ( 'NONE',  ( 1.966875146391653479E-30, -1.000000000000000000, 5.633354314427920175E-16 ) ) ;
#71 = EDGE_LOOP ( 'NONE', ( #78 ) ) ;
#72 = DIRECTION ( 'NONE',  ( -3.491481338843133355E-15, -5.633354314427920175E-16, -1.000000000000000000 ) ) ;
#73 = DATE_AND_TIME ( #14, #242 ) ;
#74 = DIRECTION ( 'NONE',  ( 3.491481338843133355E-15, 5.633354314427920175E-16, 1.000000000000000000 ) ) ;
#75 = CALENDAR_DATE ( 2021, 26, 11 ) ;
#76 = APPROVAL_ROLE ( '' ) ;
#77 = APPROVAL ( #49, 'UNSPECIFIED' ) ;
#78 = ORIENTED_EDGE ( 'NONE', *, *, #131, .F. ) ;
#79 =( GEOMETRIC_REPRESENTATION_CONTEXT ( 3 ) GLOBAL_UNCERTAINTY_ASSIGNED_CONTEXT ( ( #34 ) ) GLOBAL_UNIT_ASSIGNED_CONTEXT ( ( #8, #202, #218 ) ) REPRESENTATION_CONTEXT ( 'NONE', 'WORKASPACE' ) );
#80 = APPLICATION_CONTEXT ( 'configuration controlled 3d designs of mechanical parts and assemblies' ) ;
#81 = AXIS2_PLACEMENT_3D ( 'NONE', #54, #206, #223 ) ;
#82 = CARTESIAN_POINT ( 'NONE',  ( 4.232109568119643825E-14, 3.080000000000003624, 12.12124355652981933 ) ) ;
#83 = EDGE_LOOP ( 'NONE', ( #15 ) ) ;
#84 = SHAPE_DEFINITION_REPRESENTATION ( #151, #174 ) ;
#85 = LOCAL_TIME ( 11, 4, 40.00000000000000000, #96 ) ;
#86 = APPROVAL_DATE_TIME ( #108, #236 ) ;
#87 = APPROVAL_DATE_TIME ( #47, #142 ) ;
#88 = VERTEX_POINT ( 'NONE', #129 ) ;
#89 = PERSON_AND_ORGANIZATION ( #64, #219 ) ;
#90 = PLANE ( 'NONE',  #50 ) ;
#91 = ORIENTED_EDGE ( 'NONE', *, *, #66, .F. ) ;
#92 = CYLINDRICAL_SURFACE ( 'NONE', #1, 3.080000000000000071 ) ;
#93 = ADVANCED_FACE ( 'NONE', ( #114, #117 ), #179, .T. ) ;
#94 = LOCAL_TIME ( 11, 4, 40.00000000000000000, #30 ) ;
#95 = EDGE_LOOP ( 'NONE', ( #5 ) ) ;
#96 = COORDINATED_UNIVERSAL_TIME_OFFSET ( 1, 0, .AHEAD. ) ;
#97 = EDGE_LOOP ( 'NONE', ( #195 ) ) ;
#98 = EDGE_CURVE ( 'NONE', #140, #140, #216, .T. ) ;
#99 = MANIFOLD_SOLID_BREP ( 'Corps-Déplacer/Copier1[2]', #237 ) ;
#100 = ADVANCED_FACE ( 'NONE', ( #113, #188 ), #92, .T. ) ;
#101 = VERTEX_POINT ( 'NONE', #82 ) ;
#102 = CC_DESIGN_APPROVAL ( #142, ( #19 ) ) ;
#103 = MECHANICAL_CONTEXT ( 'NONE', #80, 'mechanical' ) ;
#104 = MANIFOLD_SOLID_BREP ( 'Corps-Déplacer/Copier1[1]', #159 ) ;
#105 = PERSON_AND_ORGANIZATION ( #64, #219 ) ;
#106 = EDGE_LOOP ( 'NONE', ( #145 ) ) ;
#107 = DIRECTION ( 'NONE',  ( -3.491481338843133355E-15, 9.031770143711729009E-17, -1.000000000000000000 ) ) ;
#108 = DATE_AND_TIME ( #24, #56 ) ;
#109 = CALENDAR_DATE ( 2021, 26, 11 ) ;
#110 = AXIS2_PLACEMENT_3D ( 'NONE', #185, #6, #163 ) ;
#111 = DIRECTION ( 'NONE',  ( -3.491481338843133355E-15, 9.031770143711729009E-17, -1.000000000000000000 ) ) ;
#112 = PERSON_AND_ORGANIZATION_ROLE ( 'design_owner' ) ;
#113 = FACE_OUTER_BOUND ( 'NONE', #2, .T. ) ;
#114 = FACE_BOUND ( 'NONE', #95, .T. ) ;
#115 = CYLINDRICAL_SURFACE ( 'NONE', #119, 1.999999999999993561 ) ;
#116 = PERSON_AND_ORGANIZATION ( #64, #219 ) ;
#117 = FACE_OUTER_BOUND ( 'NONE', #10, .T. ) ;
#118 = CARTESIAN_POINT ( 'NONE',  ( 1.396592535537259456E-15, 2.253341725771178029E-16, 0.4000000000000017431 ) ) ;
#119 = AXIS2_PLACEMENT_3D ( 'NONE', #190, #107, #23 ) ;
#120 = ADVANCED_FACE ( 'NONE', ( #226 ), #90, .T. ) ;
#121 = APPROVAL_STATUS ( 'not_yet_approved' ) ;
#122 = ORIENTED_EDGE ( 'NONE', *, *, #209, .F. ) ;
#123 = PRODUCT_DEFINITION_FORMATION_WITH_SPECIFIED_SOURCE ( 'ANY', '', #189, .NOT_KNOWN. ) ;
#124 = CC_DESIGN_DATE_AND_TIME_ASSIGNMENT ( #214, #225, ( #41 ) ) ;
#125 = VERTEX_POINT ( 'NONE', #63 ) ;
#126 = EDGE_CURVE ( 'NONE', #101, #101, #177, .T. ) ;
#127 = AXIS2_PLACEMENT_3D ( 'NONE', #172, #33, #68 ) ;
#128 = VERTEX_POINT ( 'NONE', #27 ) ;
#129 = CARTESIAN_POINT ( 'NONE',  ( 0.0000000000000000000, 2.849059892324154131, 0.0000000000000000000 ) ) ;
#130 = ORIENTED_EDGE ( 'NONE', *, *, #209, .T. ) ;
#131 = EDGE_CURVE ( 'NONE', #128, #128, #184, .T. ) ;
#132 = ORIENTED_EDGE ( 'NONE', *, *, #45, .F. ) ;
#133 = DIRECTION ( 'NONE',  ( -2.000966175986740469E-30, 1.000000000000000000, -5.632219077846781685E-16 ) ) ;
#134 = ORIENTED_EDGE ( 'NONE', *, *, #126, .T. ) ;
#135 = EDGE_LOOP ( 'NONE', ( #4 ) ) ;
#136 = DIRECTION ( 'NONE',  ( -3.491481338843133355E-15, -5.633354314427920175E-16, -1.000000000000000000 ) ) ;
#137 = AXIS2_PLACEMENT_3D ( 'NONE', #187, #234, #36 ) ;
#138 = FACE_OUTER_BOUND ( 'NONE', #71, .T. ) ;
#139 = CALENDAR_DATE ( 2021, 26, 11 ) ;
#140 = VERTEX_POINT ( 'NONE', #198 ) ;
#141 = APPLICATION_PROTOCOL_DEFINITION ( 'international standard', 'config_control_design', 1994, #80 ) ;
#142 = APPROVAL ( #121, 'UNSPECIFIED' ) ;
#143 = AXIS2_PLACEMENT_3D ( 'NONE', #152, #165, #194 ) ;
#144 = DATE_AND_TIME ( #109, #94 ) ;
#145 = ORIENTED_EDGE ( 'NONE', *, *, #149, .F. ) ;
#146 = ORIENTED_EDGE ( 'NONE', *, *, #45, .T. ) ;
#147 = PERSON_AND_ORGANIZATION ( #64, #219 ) ;
#148 = DIRECTION ( 'NONE',  ( -3.491481338843133355E-15, -5.633354314427920175E-16, -1.000000000000000000 ) ) ;
#149 = EDGE_CURVE ( 'NONE', #158, #158, #22, .T. ) ;
#150 = CARTESIAN_POINT ( 'NONE',  ( 5.603745092793659099E-30, 9.041400635382785319E-31, 1.604976383648781810E-15 ) ) ;
#151 = PRODUCT_DEFINITION_SHAPE ( 'NONE', 'NONE',  #41 ) ;
#152 = CARTESIAN_POINT ( 'NONE',  ( 2.779219145719134403E-13, -7.189289034394536528E-15, 79.60000000000000853 ) ) ;
#153 = DIRECTION ( 'NONE',  ( 0.0000000000000000000, 1.000000000000000000, 0.0000000000000000000 ) ) ;
#154 = PERSON_AND_ORGANIZATION ( #64, #219 ) ;
#155 = DIRECTION ( 'NONE',  ( 3.153425691349006731E-31, 1.000000000000000000, 9.031770143711729009E-17 ) ) ;
#156 = CC_DESIGN_DATE_AND_TIME_ASSIGNMENT ( #73, #59, ( #19 ) ) ;
#157 = CARTESIAN_POINT ( 'NONE',  ( 4.232109568119643825E-14, -1.094762856585241965E-15, 12.12124355652981933 ) ) ;
#158 = VERTEX_POINT ( 'NONE', #231 ) ;
#159 = CLOSED_SHELL ( 'NONE', ( #120, #93, #192, #212, #201 ) ) ;
#160 = CC_DESIGN_APPROVAL ( #77, ( #123 ) ) ;
#161 = COORDINATED_UNIVERSAL_TIME_OFFSET ( 1, 0, .AHEAD. ) ;
#162 = CC_DESIGN_PERSON_AND_ORGANIZATION_ASSIGNMENT ( #105, #112, ( #189 ) ) ;
#163 = DIRECTION ( 'NONE',  ( 1.000000000000000000, 0.0000000000000000000, 0.0000000000000000000 ) ) ;
#164 = APPROVAL_PERSON_ORGANIZATION ( #200, #236, #182 ) ;
#165 = DIRECTION ( 'NONE',  ( -3.491481338843133355E-15, 9.031770143711729009E-17, -1.000000000000000000 ) ) ;
#166 = FACE_BOUND ( 'NONE', #228, .T. ) ;
#167 = FACE_OUTER_BOUND ( 'NONE', #135, .T. ) ;
#168 = CONICAL_SURFACE ( 'NONE', #51, 2.849059892324154131, 0.5235987755982969283 ) ;
#169 = CIRCLE ( 'NONE', #43, 3.080000000000003180 ) ;
#170 = AXIS2_PLACEMENT_3D ( 'NONE', #26, #111, #155 ) ;
#171 = EDGE_LOOP ( 'NONE', ( #12 ) ) ;
#172 = CARTESIAN_POINT ( 'NONE',  ( 2.779219145719134403E-13, -7.189289034394536528E-15, 79.60000000000000853 ) ) ;
#173 = ADVANCED_FACE ( 'NONE', ( #191, #166 ), #168, .T. ) ;
#174 = ADVANCED_BREP_SHAPE_REPRESENTATION ( '321519', ( #104, #99, #110 ), #79 ) ;
#175 = PERSON_AND_ORGANIZATION_ROLE ( 'creator' ) ;
#176 = ADVANCED_FACE ( 'NONE', ( #222 ), #235, .T. ) ;
#177 = CIRCLE ( 'NONE', #44, 3.079999999999996962 ) ;
#178 = APPROVAL_PERSON_ORGANIZATION ( #154, #142, #76 ) ;
#179 = CONICAL_SURFACE ( 'NONE', #127, 1.999999999999995337, 0.7853981633974516097 ) ;
#180 = CONICAL_SURFACE ( 'NONE', #213, 3.080000000000004956, 0.5235987755982935976 ) ;
#181 = APPLICATION_PROTOCOL_DEFINITION ( 'international standard', 'config_control_design', 1994, #207 ) ;
#182 = APPROVAL_ROLE ( '' ) ;
#183 = PERSON_AND_ORGANIZATION ( #64, #219 ) ;
#184 = CIRCLE ( 'NONE', #193, 3.080000000000004956 ) ;
#185 = CARTESIAN_POINT ( 'NONE',  ( 0.0000000000000000000, 0.0000000000000000000, 0.0000000000000000000 ) ) ;
#186 = CC_DESIGN_PERSON_AND_ORGANIZATION_ASSIGNMENT ( #116, #175, ( #41 ) ) ;
#187 = CARTESIAN_POINT ( 'NONE',  ( 2.793185071074506684E-13, -7.225416114969383207E-15, 80.00000000000000000 ) ) ;
#188 = FACE_OUTER_BOUND ( 'NONE', #60, .T. ) ;
#189 = PRODUCT ( '321519', '321519', '', ( #103 ) ) ;
#190 = CARTESIAN_POINT ( 'NONE',  ( 0.0000000000000000000, 0.0000000000000000000, 0.0000000000000000000 ) ) ;
#191 = FACE_OUTER_BOUND ( 'NONE', #40, .T. ) ;
#192 = ADVANCED_FACE ( 'NONE', ( #208, #35 ), #115, .T. ) ;
#193 = AXIS2_PLACEMENT_3D ( 'NONE', #205, #55, #11 ) ;
#194 = DIRECTION ( 'NONE',  ( 0.0000000000000000000, 1.000000000000000000, 0.0000000000000000000 ) ) ;
#195 = ORIENTED_EDGE ( 'NONE', *, *, #98, .T. ) ;
#196 = CC_DESIGN_APPROVAL ( #236, ( #41 ) ) ;
#197 = VERTEX_POINT ( 'NONE', #20 ) ;
#198 = CARTESIAN_POINT ( 'NONE',  ( 4.885231259955590439E-14, 1.999999999999990452, 13.99185842870425134 ) ) ;
#199 = LOCAL_TIME ( 11, 4, 40.00000000000000000, #18 ) ;
#200 = PERSON_AND_ORGANIZATION ( #64, #219 ) ;
#201 = ADVANCED_FACE ( 'NONE', ( #217 ), #48, .T. ) ;
#202 =( NAMED_UNIT ( * ) PLANE_ANGLE_UNIT ( ) SI_UNIT ( $, .RADIAN. ) );
#203 = APPROVAL_ROLE ( '' ) ;
#204 = AXIS2_PLACEMENT_3D ( 'NONE', #238, #74, #224 ) ;
#205 = CARTESIAN_POINT ( 'NONE',  ( 4.232109568119643825E-14, -1.094762856585241965E-15, 12.12124355652981933 ) ) ;
#206 = DIRECTION ( 'NONE',  ( -3.491481338843133355E-15, -5.633354314427920175E-16, -1.000000000000000000 ) ) ;
#207 = APPLICATION_CONTEXT ( 'configuration controlled 3d designs of mechanical parts and assemblies' ) ;
#208 = FACE_OUTER_BOUND ( 'NONE', #171, .T. ) ;
#209 = EDGE_CURVE ( 'NONE', #88, #88, #39, .T. ) ;
#210 = DIRECTION ( 'NONE',  ( -3.491481338843133355E-15, 9.031770143711729009E-17, -1.000000000000000000 ) ) ;
#211 = CARTESIAN_POINT ( 'NONE',  ( 4.885231259955590439E-14, -1.263712492114123682E-15, 13.99185842870425134 ) ) ;
#212 = ADVANCED_FACE ( 'NONE', ( #42, #138 ), #180, .T. ) ;
#213 = AXIS2_PLACEMENT_3D ( 'NONE', #157, #230, #243 ) ;
#214 = DATE_AND_TIME ( #139, #85 ) ;
#215 = APPROVAL_STATUS ( 'not_yet_approved' ) ;
#216 = CIRCLE ( 'NONE', #7, 1.999999999999991784 ) ;
#217 = FACE_OUTER_BOUND ( 'NONE', #83, .T. ) ;
#218 =( NAMED_UNIT ( * ) SI_UNIT ( $, .STERADIAN. ) SOLID_ANGLE_UNIT ( ) );
#219 = ORGANIZATION ( 'UNSPECIFIED', 'UNSPECIFIED', '' ) ;
#220 = CARTESIAN_POINT ( 'NONE',  ( 0.0000000000000000000, 0.0000000000000000000, 0.0000000000000000000 ) ) ;
#221 = EDGE_LOOP ( 'NONE', ( #46 ) ) ;
#222 = FACE_OUTER_BOUND ( 'NONE', #29, .T. ) ;
#223 = DIRECTION ( 'NONE',  ( -1.966875146391653479E-30, 1.000000000000000000, -5.633354314427920175E-16 ) ) ;
#224 = DIRECTION ( 'NONE',  ( 1.966875146391653479E-30, -1.000000000000000000, 5.633354314427920175E-16 ) ) ;
#225 = DATE_TIME_ROLE ( 'creation_date' ) ;
#226 = FACE_OUTER_BOUND ( 'NONE', #106, .T. ) ;
#227 = CARTESIAN_POINT ( 'NONE',  ( 5.603745092793659099E-30, 9.041400635382785319E-31, 1.604976383648781810E-15 ) ) ;
#228 = EDGE_LOOP ( 'NONE', ( #122 ) ) ;
#229 = CC_DESIGN_PERSON_AND_ORGANIZATION_ASSIGNMENT ( #89, #65, ( #19 ) ) ;
#230 = DIRECTION ( 'NONE',  ( -3.491481338843133355E-15, 9.031770143711729009E-17, -1.000000000000000000 ) ) ;
#231 = CARTESIAN_POINT ( 'NONE',  ( 2.793185071074506684E-13, 1.599999999999987876, 80.00000000000000000 ) ) ;
#232 = SECURITY_CLASSIFICATION_LEVEL ( 'unclassified' ) ;
#233 = PERSON_AND_ORGANIZATION ( #64, #219 ) ;
#234 = DIRECTION ( 'NONE',  ( -3.491481338843133355E-15, 9.031770143711729009E-17, -1.000000000000000000 ) ) ;
#235 = PLANE ( 'NONE',  #81 ) ;
#236 = APPROVAL ( #215, 'UNSPECIFIED' ) ;
#237 = CLOSED_SHELL ( 'NONE', ( #67, #100, #173, #176 ) ) ;
#238 = CARTESIAN_POINT ( 'NONE',  ( 4.232109568119643194E-14, 6.828325968540885991E-15, 12.12124355652981755 ) ) ;
#239 = APPROVAL_PERSON_ORGANIZATION ( #233, #77, #203 ) ;
#240 = DIRECTION ( 'NONE',  ( -1.938435982987150953E-30, 1.000000000000000000, -5.632219077846770838E-16 ) ) ;
#241 = CC_DESIGN_PERSON_AND_ORGANIZATION_ASSIGNMENT ( #183, #69, ( #123 ) ) ;
#242 = LOCAL_TIME ( 11, 4, 40.00000000000000000, #161 ) ;
#243 = DIRECTION ( 'NONE',  ( 0.0000000000000000000, 1.000000000000000000, 0.0000000000000000000 ) ) ;
ENDSEC;
END-ISO-10303-21;
