ISO-10303-21;
HEADER;
FILE_DESCRIPTION (( 'STEP AP203' ),
    '1' );
FILE_NAME ('321518.step',
    '2021-11-26T10:04:39',
    ( '' ),
    ( '' ),
    'SwSTEP 2.0',
    'SolidWorks 2019',
    '' );
FILE_SCHEMA (( 'CONFIG_CONTROL_DESIGN' ));
ENDSEC;

DATA;
#1 = DATE_TIME_ROLE ( 'classification_date' ) ;
#2 = DIRECTION ( 'NONE',  ( 3.153425691349006731E-31, 1.000000000000000000, 9.031770143711729009E-17 ) ) ;
#3 = CARTESIAN_POINT ( 'NONE',  ( 0.0000000000000000000, 0.0000000000000000000, 0.0000000000000000000 ) ) ;
#4 = DIRECTION ( 'NONE',  ( -3.491481338843133355E-15, 9.031770143711729009E-17, -1.000000000000000000 ) ) ;
#5 = DIRECTION ( 'NONE',  ( -1.941587911414772026E-30, 1.000000000000000000, -5.641377157648146002E-16 ) ) ;
#6 = APPLICATION_PROTOCOL_DEFINITION ( 'international standard', 'config_control_design', 1994, #199 ) ;
#7 = FACE_OUTER_BOUND ( 'NONE', #91, .T. ) ;
#8 = DIRECTION ( 'NONE',  ( 0.0000000000000000000, 0.0000000000000000000, 1.000000000000000000 ) ) ;
#9 = VERTEX_POINT ( 'NONE', #46 ) ;
#10 = PERSON_AND_ORGANIZATION_ROLE ( 'design_owner' ) ;
#11 = DIRECTION ( 'NONE',  ( -3.491481338843133355E-15, 9.031770143711729009E-17, -1.000000000000000000 ) ) ;
#12 = APPROVAL_ROLE ( '' ) ;
#13 = PLANE ( 'NONE',  #62 ) ;
#14 = COORDINATED_UNIVERSAL_TIME_OFFSET ( 1, 0, .AHEAD. ) ;
#15 = DIRECTION ( 'NONE',  ( -3.491481338843133355E-15, 9.031770143711729009E-17, -1.000000000000000000 ) ) ;
#16 = CC_DESIGN_SECURITY_CLASSIFICATION ( #59, ( #31 ) ) ;
#17 = DIRECTION ( 'NONE',  ( -3.491481338843133355E-15, 9.031770143711729009E-17, -1.000000000000000000 ) ) ;
#18 = EDGE_LOOP ( 'NONE', ( #241 ) ) ;
#19 = APPROVAL ( #182, 'UNSPECIFIED' ) ;
#20 = CONICAL_SURFACE ( 'NONE', #185, 2.844059892324154237, 0.5235987755982969283 ) ;
#21 = DIRECTION ( 'NONE',  ( 3.491481338843133355E-15, 5.627583635178038180E-16, 1.000000000000000000 ) ) ;
#22 = CC_DESIGN_APPROVAL ( #239, ( #206 ) ) ;
#23 = LOCAL_TIME ( 11, 4, 39.00000000000000000, #14 ) ;
#24 = ORIENTED_EDGE ( 'NONE', *, *, #51, .F. ) ;
#25 = DIRECTION ( 'NONE',  ( -3.491481338843133355E-15, 9.031770143711729009E-17, -1.000000000000000000 ) ) ;
#26 = VERTEX_POINT ( 'NONE', #64 ) ;
#27 = CALENDAR_DATE ( 2021, 26, 11 ) ;
#28 = FACE_OUTER_BOUND ( 'NONE', #150, .T. ) ;
#29 = VERTEX_POINT ( 'NONE', #87 ) ;
#30 = CARTESIAN_POINT ( 'NONE',  ( 0.0000000000000000000, 0.0000000000000000000, 0.0000000000000000000 ) ) ;
#31 = PRODUCT_DEFINITION_FORMATION_WITH_SPECIFIED_SOURCE ( 'ANY', '', #129, .NOT_KNOWN. ) ;
#32 = FACE_OUTER_BOUND ( 'NONE', #36, .T. ) ;
#33 = APPROVAL_STATUS ( 'not_yet_approved' ) ;
#34 = CIRCLE ( 'NONE', #173, 3.075000000000005063 ) ;
#35 = ADVANCED_FACE ( 'NONE', ( #188, #154 ), #238, .T. ) ;
#36 = EDGE_LOOP ( 'NONE', ( #102 ) ) ;
#37 = EDGE_LOOP ( 'NONE', ( #39 ) ) ;
#38 = EDGE_LOOP ( 'NONE', ( #224 ) ) ;
#39 = ORIENTED_EDGE ( 'NONE', *, *, #200, .F. ) ;
#40 = AXIS2_PLACEMENT_3D ( 'NONE', #105, #145, #236 ) ;
#41 = CALENDAR_DATE ( 2021, 26, 11 ) ;
#42 = AXIS2_PLACEMENT_3D ( 'NONE', #176, #191, #78 ) ;
#43 = DATE_AND_TIME ( #27, #23 ) ;
#44 = EDGE_CURVE ( 'NONE', #26, #26, #229, .T. ) ;
#45 = EDGE_LOOP ( 'NONE', ( #54 ) ) ;
#46 = CARTESIAN_POINT ( 'NONE',  ( 4.885231259955590439E-14, 1.999999999999990452, 13.99185842870425134 ) ) ;
#47 = MECHANICAL_CONTEXT ( 'NONE', #199, 'mechanical' ) ;
#48 = APPROVAL_DATE_TIME ( #58, #69 ) ;
#49 = CC_DESIGN_PERSON_AND_ORGANIZATION_ASSIGNMENT ( #178, #10, ( #129 ) ) ;
#50 = DATE_TIME_ROLE ( 'creation_date' ) ;
#51 = EDGE_CURVE ( 'NONE', #82, #82, #156, .T. ) ;
#52 = DIRECTION ( 'NONE',  ( -3.153425691349006731E-31, -1.000000000000000000, -9.031770143711729009E-17 ) ) ;
#53 = AXIS2_PLACEMENT_3D ( 'NONE', #114, #15, #149 ) ;
#54 = ORIENTED_EDGE ( 'NONE', *, *, #76, .F. ) ;
#55 = APPROVAL_ROLE ( '' ) ;
#56 =( GEOMETRIC_REPRESENTATION_CONTEXT ( 3 ) GLOBAL_UNCERTAINTY_ASSIGNED_CONTEXT ( ( #109 ) ) GLOBAL_UNIT_ASSIGNED_CONTEXT ( ( #107, #235, #66 ) ) REPRESENTATION_CONTEXT ( 'NONE', 'WORKASPACE' ) );
#57 = DIRECTION ( 'NONE',  ( -3.491481338843133355E-15, -5.627583635178038180E-16, -1.000000000000000000 ) ) ;
#58 = DATE_AND_TIME ( #41, #75 ) ;
#59 = SECURITY_CLASSIFICATION ( '', '', #85 ) ;
#60 = CONICAL_SURFACE ( 'NONE', #133, 1.999999999999995337, 0.7853981633974516097 ) ;
#61 = VERTEX_POINT ( 'NONE', #143 ) ;
#62 = AXIS2_PLACEMENT_3D ( 'NONE', #73, #183, #52 ) ;
#63 = FACE_BOUND ( 'NONE', #225, .T. ) ;
#64 = CARTESIAN_POINT ( 'NONE',  ( 4.235133279655920067E-14, 3.075000000000003730, 12.12990381056766154 ) ) ;
#65 = DIRECTION ( 'NONE',  ( -2.004219779524930381E-30, 1.000000000000000000, -5.641377157648158820E-16 ) ) ;
#66 =( NAMED_UNIT ( * ) SI_UNIT ( $, .STERADIAN. ) SOLID_ANGLE_UNIT ( ) );
#67 = AXIS2_PLACEMENT_3D ( 'NONE', #196, #194, #96 ) ;
#68 = MANIFOLD_SOLID_BREP ( 'Corps-Déplacer/Copier1[1]', #169 ) ;
#69 = APPROVAL ( #211, 'UNSPECIFIED' ) ;
#70 = PLANE ( 'NONE',  #204 ) ;
#71 = CIRCLE ( 'NONE', #72, 3.075000000000003730 ) ;
#72 = AXIS2_PLACEMENT_3D ( 'NONE', #218, #138, #5 ) ;
#73 = CARTESIAN_POINT ( 'NONE',  ( 2.793185071074506684E-13, -7.225416114969383207E-15, 80.00000000000000000 ) ) ;
#74 = APPROVAL_ROLE ( '' ) ;
#75 = LOCAL_TIME ( 11, 4, 39.00000000000000000, #159 ) ;
#76 = EDGE_CURVE ( 'NONE', #61, #61, #144, .T. ) ;
#77 = ORIENTED_EDGE ( 'NONE', *, *, #51, .T. ) ;
#78 = DIRECTION ( 'NONE',  ( 0.0000000000000000000, 1.000000000000000000, 0.0000000000000000000 ) ) ;
#79 = DIRECTION ( 'NONE',  ( -3.491481338843133355E-15, -5.627583635178038180E-16, -1.000000000000000000 ) ) ;
#80 = EDGE_CURVE ( 'NONE', #29, #29, #34, .T. ) ;
#81 = DIRECTION ( 'NONE',  ( -3.491481338843133355E-15, -5.627583635178038180E-16, -1.000000000000000000 ) ) ;
#82 = VERTEX_POINT ( 'NONE', #140 ) ;
#83 = PLANE ( 'NONE',  #67 ) ;
#84 = DIRECTION ( 'NONE',  ( 1.000000000000000000, 0.0000000000000000000, 0.0000000000000000000 ) ) ;
#85 = SECURITY_CLASSIFICATION_LEVEL ( 'unclassified' ) ;
#86 = ADVANCED_FACE ( 'NONE', ( #7 ), #83, .T. ) ;
#87 = CARTESIAN_POINT ( 'NONE',  ( 4.235133279655920067E-14, 3.075000000000003730, 12.12990381056766154 ) ) ;
#88 = ORIENTED_EDGE ( 'NONE', *, *, #44, .T. ) ;
#89 = DATE_AND_TIME ( #184, #201 ) ;
#90 = ADVANCED_BREP_SHAPE_REPRESENTATION ( '321518', ( #68, #151, #111 ), #56 ) ;
#91 = EDGE_LOOP ( 'NONE', ( #77 ) ) ;
#92 = COORDINATED_UNIVERSAL_TIME_OFFSET ( 1, 0, .AHEAD. ) ;
#93 = FACE_OUTER_BOUND ( 'NONE', #38, .T. ) ;
#94 = CARTESIAN_POINT ( 'NONE',  ( 4.235133279655920698E-14, 6.826204818063430380E-15, 12.12990381056766331 ) ) ;
#95 = PERSON_AND_ORGANIZATION ( #180, #207 ) ;
#96 = DIRECTION ( 'NONE',  ( -1.964860324500312409E-30, 1.000000000000000000, -5.627583635178038180E-16 ) ) ;
#97 = FACE_BOUND ( 'NONE', #155, .T. ) ;
#98 = ORIENTED_EDGE ( 'NONE', *, *, #44, .F. ) ;
#99 = FACE_OUTER_BOUND ( 'NONE', #168, .T. ) ;
#100 = CARTESIAN_POINT ( 'NONE',  ( 1.396592535537253539E-15, 3.075000000000003730, 0.4000000000000000222 ) ) ;
#101 = PERSON_AND_ORGANIZATION ( #180, #207 ) ;
#102 = ORIENTED_EDGE ( 'NONE', *, *, #80, .T. ) ;
#103 = FACE_OUTER_BOUND ( 'NONE', #45, .T. ) ;
#104 = APPROVAL_PERSON_ORGANIZATION ( #231, #69, #55 ) ;
#105 = CARTESIAN_POINT ( 'NONE',  ( 2.793185071074506684E-13, -7.225416114969383207E-15, 80.00000000000000000 ) ) ;
#106 = ADVANCED_FACE ( 'NONE', ( #142, #158 ), #116, .T. ) ;
#107 =( LENGTH_UNIT ( ) NAMED_UNIT ( * ) SI_UNIT ( .MILLI., .METRE. ) );
#108 = SHAPE_DEFINITION_REPRESENTATION ( #226, #90 ) ;
#109 = UNCERTAINTY_MEASURE_WITH_UNIT (LENGTH_MEASURE( 1.000000000000000082E-05 ), #107, 'distance_accuracy_value', 'NONE');
#110 = CARTESIAN_POINT ( 'NONE',  ( 4.235133279655920698E-14, 3.075000000000003730, 12.12990381056766331 ) ) ;
#111 = AXIS2_PLACEMENT_3D ( 'NONE', #30, #8, #84 ) ;
#112 = AXIS2_PLACEMENT_3D ( 'NONE', #119, #81, #115 ) ;
#113 = CC_DESIGN_DATE_AND_TIME_ASSIGNMENT ( #202, #50, ( #206 ) ) ;
#114 = CARTESIAN_POINT ( 'NONE',  ( 4.885231259955590439E-14, -1.263712492114123682E-15, 13.99185842870425134 ) ) ;
#115 = DIRECTION ( 'NONE',  ( -1.964860324500312409E-30, 1.000000000000000000, -5.627583635178038180E-16 ) ) ;
#116 = CYLINDRICAL_SURFACE ( 'NONE', #242, 1.999999999999993561 ) ;
#117 = CARTESIAN_POINT ( 'NONE',  ( 2.779219145719134403E-13, -7.189289034394536528E-15, 79.60000000000000853 ) ) ;
#118 = APPROVAL_DATE_TIME ( #43, #19 ) ;
#119 = CARTESIAN_POINT ( 'NONE',  ( 5.588180442930361242E-30, 9.007051666349967639E-31, 1.600518490750962349E-15 ) ) ;
#120 = CC_DESIGN_APPROVAL ( #19, ( #31 ) ) ;
#121 = AXIS2_PLACEMENT_3D ( 'NONE', #94, #57, #65 ) ;
#122 = AXIS2_PLACEMENT_3D ( 'NONE', #3, #79, #212 ) ;
#123 = DESIGN_CONTEXT ( 'detailed design', #139, 'design' ) ;
#124 = PERSON_AND_ORGANIZATION ( #180, #207 ) ;
#125 = CC_DESIGN_APPROVAL ( #69, ( #59 ) ) ;
#126 = AXIS2_PLACEMENT_3D ( 'NONE', #137, #21, #214 ) ;
#127 = CIRCLE ( 'NONE', #53, 1.999999999999991784 ) ;
#128 = APPROVAL_PERSON_ORGANIZATION ( #219, #239, #74 ) ;
#129 = PRODUCT ( '321518', '321518', '', ( #47 ) ) ;
#130 = CARTESIAN_POINT ( 'NONE',  ( 4.235133279655920067E-14, -1.095545030823801261E-15, 12.12990381056766154 ) ) ;
#131 = EDGE_LOOP ( 'NONE', ( #205 ) ) ;
#132 = ORIENTED_EDGE ( 'NONE', *, *, #76, .T. ) ;
#133 = AXIS2_PLACEMENT_3D ( 'NONE', #117, #4, #134 ) ;
#134 = DIRECTION ( 'NONE',  ( 0.0000000000000000000, 1.000000000000000000, 0.0000000000000000000 ) ) ;
#135 = CC_DESIGN_PERSON_AND_ORGANIZATION_ASSIGNMENT ( #101, #161, ( #31 ) ) ;
#136 = DIRECTION ( 'NONE',  ( -3.491481338843133355E-15, 9.031770143711729009E-17, -1.000000000000000000 ) ) ;
#137 = CARTESIAN_POINT ( 'NONE',  ( 4.235133279655920698E-14, 6.826204818063430380E-15, 12.12990381056766331 ) ) ;
#138 = DIRECTION ( 'NONE',  ( -3.491481338843133355E-15, -5.627583635178038180E-16, -1.000000000000000000 ) ) ;
#139 = APPLICATION_CONTEXT ( 'configuration controlled 3d designs of mechanical parts and assemblies' ) ;
#140 = CARTESIAN_POINT ( 'NONE',  ( 0.0000000000000000000, 2.844059892324154237, 0.0000000000000000000 ) ) ;
#141 = LOCAL_TIME ( 11, 4, 39.00000000000000000, #221 ) ;
#142 = FACE_OUTER_BOUND ( 'NONE', #216, .T. ) ;
#143 = CARTESIAN_POINT ( 'NONE',  ( 2.779219145719134403E-13, 1.999999999999988010, 79.60000000000000853 ) ) ;
#144 = CIRCLE ( 'NONE', #42, 1.999999999999995337 ) ;
#145 = DIRECTION ( 'NONE',  ( -3.491481338843133355E-15, 9.031770143711729009E-17, -1.000000000000000000 ) ) ;
#146 = APPLICATION_PROTOCOL_DEFINITION ( 'international standard', 'config_control_design', 1994, #139 ) ;
#147 = PERSON_AND_ORGANIZATION_ROLE ( 'creator' ) ;
#148 = ADVANCED_FACE ( 'NONE', ( #234 ), #230, .T. ) ;
#149 = DIRECTION ( 'NONE',  ( 0.0000000000000000000, 1.000000000000000000, 0.0000000000000000000 ) ) ;
#150 = EDGE_LOOP ( 'NONE', ( #88 ) ) ;
#151 = MANIFOLD_SOLID_BREP ( 'Corps-Déplacer/Copier1[2]', #166 ) ;
#152 = AXIS2_PLACEMENT_3D ( 'NONE', #130, #17, #228 ) ;
#153 = CC_DESIGN_PERSON_AND_ORGANIZATION_ASSIGNMENT ( #95, #215, ( #59 ) ) ;
#154 = FACE_OUTER_BOUND ( 'NONE', #131, .T. ) ;
#155 = EDGE_LOOP ( 'NONE', ( #163 ) ) ;
#156 = CIRCLE ( 'NONE', #112, 2.844059892324154237 ) ;
#157 = ADVANCED_FACE ( 'NONE', ( #97, #103 ), #60, .T. ) ;
#158 = FACE_OUTER_BOUND ( 'NONE', #37, .T. ) ;
#159 = COORDINATED_UNIVERSAL_TIME_OFFSET ( 1, 0, .AHEAD. ) ;
#160 = CC_DESIGN_DATE_AND_TIME_ASSIGNMENT ( #190, #1, ( #59 ) ) ;
#161 = PERSON_AND_ORGANIZATION_ROLE ( 'creator' ) ;
#162 = DIRECTION ( 'NONE',  ( 0.0000000000000000000, 1.000000000000000000, 0.0000000000000000000 ) ) ;
#163 = ORIENTED_EDGE ( 'NONE', *, *, #232, .T. ) ;
#164 = ADVANCED_FACE ( 'NONE', ( #99, #63 ), #20, .T. ) ;
#165 = ADVANCED_FACE ( 'NONE', ( #28, #213 ), #174, .T. ) ;
#166 = CLOSED_SHELL ( 'NONE', ( #148, #165, #164, #86 ) ) ;
#167 = CALENDAR_DATE ( 2021, 26, 11 ) ;
#168 = EDGE_LOOP ( 'NONE', ( #208 ) ) ;
#169 = CLOSED_SHELL ( 'NONE', ( #171, #157, #106, #35, #203 ) ) ;
#170 = CALENDAR_DATE ( 2021, 26, 11 ) ;
#171 = ADVANCED_FACE ( 'NONE', ( #93 ), #13, .T. ) ;
#172 = CARTESIAN_POINT ( 'NONE',  ( 0.0000000000000000000, 0.0000000000000000000, 0.0000000000000000000 ) ) ;
#173 = AXIS2_PLACEMENT_3D ( 'NONE', #233, #136, #162 ) ;
#174 = CYLINDRICAL_SURFACE ( 'NONE', #122, 3.075000000000000622 ) ;
#175 = VERTEX_POINT ( 'NONE', #100 ) ;
#176 = CARTESIAN_POINT ( 'NONE',  ( 2.779219145719134403E-13, -7.189289034394536528E-15, 79.60000000000000853 ) ) ;
#177 = PERSON_AND_ORGANIZATION ( #180, #207 ) ;
#178 = PERSON_AND_ORGANIZATION ( #180, #207 ) ;
#179 = LOCAL_TIME ( 11, 4, 39.00000000000000000, #92 ) ;
#180 = PERSON ( 'UNSPECIFIED', 'UNSPECIFIED', 'UNSPECIFIED', ('UNSPECIFIED'), ('UNSPECIFIED'), ('UNSPECIFIED') ) ;
#181 = COORDINATED_UNIVERSAL_TIME_OFFSET ( 1, 0, .AHEAD. ) ;
#182 = APPROVAL_STATUS ( 'not_yet_approved' ) ;
#183 = DIRECTION ( 'NONE',  ( 3.491481338843133355E-15, -9.031770143711729009E-17, 1.000000000000000000 ) ) ;
#184 = CALENDAR_DATE ( 2021, 26, 11 ) ;
#185 = AXIS2_PLACEMENT_3D ( 'NONE', #217, #192, #198 ) ;
#186 = CC_DESIGN_PERSON_AND_ORGANIZATION_ASSIGNMENT ( #187, #147, ( #206 ) ) ;
#187 = PERSON_AND_ORGANIZATION ( #180, #207 ) ;
#188 = FACE_BOUND ( 'NONE', #189, .T. ) ;
#189 = EDGE_LOOP ( 'NONE', ( #223 ) ) ;
#190 = DATE_AND_TIME ( #170, #179 ) ;
#191 = DIRECTION ( 'NONE',  ( -3.491481338843133355E-15, 9.031770143711729009E-17, -1.000000000000000000 ) ) ;
#192 = DIRECTION ( 'NONE',  ( 3.491481338843133355E-15, 5.627583635178038180E-16, 1.000000000000000000 ) ) ;
#193 = CC_DESIGN_PERSON_AND_ORGANIZATION_ASSIGNMENT ( #177, #237, ( #31 ) ) ;
#194 = DIRECTION ( 'NONE',  ( -3.491481338843133355E-15, -5.627583635178038180E-16, -1.000000000000000000 ) ) ;
#195 = VERTEX_POINT ( 'NONE', #197 ) ;
#196 = CARTESIAN_POINT ( 'NONE',  ( -2.794090221465180621E-30, 2.844059892324154237, -8.002592453754811747E-16 ) ) ;
#197 = CARTESIAN_POINT ( 'NONE',  ( 2.793185071074506684E-13, 1.599999999999987876, 80.00000000000000000 ) ) ;
#198 = DIRECTION ( 'NONE',  ( 1.964860324500312409E-30, -1.000000000000000000, 5.627583635178038180E-16 ) ) ;
#199 = APPLICATION_CONTEXT ( 'configuration controlled 3d designs of mechanical parts and assemblies' ) ;
#200 = EDGE_CURVE ( 'NONE', #9, #9, #127, .T. ) ;
#201 = LOCAL_TIME ( 11, 4, 39.00000000000000000, #181 ) ;
#202 = DATE_AND_TIME ( #167, #141 ) ;
#203 = ADVANCED_FACE ( 'NONE', ( #32 ), #70, .T. ) ;
#204 = AXIS2_PLACEMENT_3D ( 'NONE', #110, #11, #222 ) ;
#205 = ORIENTED_EDGE ( 'NONE', *, *, #80, .F. ) ;
#206 = PRODUCT_DEFINITION ( 'UNKNOWN', '', #31, #123 ) ;
#207 = ORGANIZATION ( 'UNSPECIFIED', 'UNSPECIFIED', '' ) ;
#208 = ORIENTED_EDGE ( 'NONE', *, *, #243, .T. ) ;
#209 = PRODUCT_RELATED_PRODUCT_CATEGORY ( 'detail', '', ( #129 ) ) ;
#210 = EDGE_LOOP ( 'NONE', ( #98 ) ) ;
#211 = APPROVAL_STATUS ( 'not_yet_approved' ) ;
#212 = DIRECTION ( 'NONE',  ( -1.964860324500312059E-30, 1.000000000000000000, -5.627583635178038180E-16 ) ) ;
#213 = FACE_OUTER_BOUND ( 'NONE', #18, .T. ) ;
#214 = DIRECTION ( 'NONE',  ( 1.964860324500312409E-30, -1.000000000000000000, 5.627583635178038180E-16 ) ) ;
#215 = PERSON_AND_ORGANIZATION_ROLE ( 'classification_officer' ) ;
#216 = EDGE_LOOP ( 'NONE', ( #132 ) ) ;
#217 = CARTESIAN_POINT ( 'NONE',  ( 5.588180442930361242E-30, 9.007051666349967639E-31, 1.600518490750962349E-15 ) ) ;
#218 = CARTESIAN_POINT ( 'NONE',  ( 1.396592535537259456E-15, 2.251033454071225231E-16, 0.4000000000000017431 ) ) ;
#219 = PERSON_AND_ORGANIZATION ( #180, #207 ) ;
#220 = APPROVAL_PERSON_ORGANIZATION ( #124, #19, #12 ) ;
#221 = COORDINATED_UNIVERSAL_TIME_OFFSET ( 1, 0, .AHEAD. ) ;
#222 = DIRECTION ( 'NONE',  ( 3.153425691349006731E-31, 1.000000000000000000, 9.031770143711729009E-17 ) ) ;
#223 = ORIENTED_EDGE ( 'NONE', *, *, #200, .T. ) ;
#224 = ORIENTED_EDGE ( 'NONE', *, *, #232, .F. ) ;
#225 = EDGE_LOOP ( 'NONE', ( #24 ) ) ;
#226 = PRODUCT_DEFINITION_SHAPE ( 'NONE', 'NONE',  #206 ) ;
#227 = CIRCLE ( 'NONE', #40, 1.599999999999994982 ) ;
#228 = DIRECTION ( 'NONE',  ( 0.0000000000000000000, 1.000000000000000000, 0.0000000000000000000 ) ) ;
#229 = CIRCLE ( 'NONE', #121, 3.074999999999997069 ) ;
#230 = PLANE ( 'NONE',  #126 ) ;
#231 = PERSON_AND_ORGANIZATION ( #180, #207 ) ;
#232 = EDGE_CURVE ( 'NONE', #195, #195, #227, .T. ) ;
#233 = CARTESIAN_POINT ( 'NONE',  ( 4.235133279655920067E-14, -1.095545030823801261E-15, 12.12990381056766154 ) ) ;
#234 = FACE_OUTER_BOUND ( 'NONE', #210, .T. ) ;
#235 =( NAMED_UNIT ( * ) PLANE_ANGLE_UNIT ( ) SI_UNIT ( $, .RADIAN. ) );
#236 = DIRECTION ( 'NONE',  ( 0.0000000000000000000, 1.000000000000000000, 0.0000000000000000000 ) ) ;
#237 = PERSON_AND_ORGANIZATION_ROLE ( 'design_supplier' ) ;
#238 = CONICAL_SURFACE ( 'NONE', #152, 3.075000000000005063, 0.5235987755982930425 ) ;
#239 = APPROVAL ( #33, 'UNSPECIFIED' ) ;
#240 = APPROVAL_DATE_TIME ( #89, #239 ) ;
#241 = ORIENTED_EDGE ( 'NONE', *, *, #243, .F. ) ;
#242 = AXIS2_PLACEMENT_3D ( 'NONE', #172, #25, #2 ) ;
#243 = EDGE_CURVE ( 'NONE', #175, #175, #71, .T. ) ;
ENDSEC;
END-ISO-10303-21;
