ISO-10303-21;
HEADER;
FILE_DESCRIPTION (( 'STEP AP203' ),
    '1' );
FILE_NAME ('321517.step',
    '2021-11-26T10:04:38',
    ( '' ),
    ( '' ),
    'SwSTEP 2.0',
    'SolidWorks 2019',
    '' );
FILE_SCHEMA (( 'CONFIG_CONTROL_DESIGN' ));
ENDSEC;

DATA;
#1 = ORIENTED_EDGE ( 'NONE', *, *, #194, .F. ) ;
#2 = CIRCLE ( 'NONE', #30, 1.999999999999995337 ) ;
#3 = EDGE_LOOP ( 'NONE', ( #1 ) ) ;
#4 = APPROVAL_STATUS ( 'not_yet_approved' ) ;
#5 = APPROVAL_PERSON_ORGANIZATION ( #236, #199, #76 ) ;
#6 = CARTESIAN_POINT ( 'NONE',  ( 0.0000000000000000000, 0.0000000000000000000, 0.0000000000000000000 ) ) ;
#7 = EDGE_LOOP ( 'NONE', ( #150 ) ) ;
#8 = PERSON_AND_ORGANIZATION_ROLE ( 'classification_officer' ) ;
#9 = ORIENTED_EDGE ( 'NONE', *, *, #19, .T. ) ;
#10 = PERSON_AND_ORGANIZATION ( #182, #207 ) ;
#11 = AXIS2_PLACEMENT_3D ( 'NONE', #196, #232, #215 ) ;
#12 = ORIENTED_EDGE ( 'NONE', *, *, #67, .F. ) ;
#13 = AXIS2_PLACEMENT_3D ( 'NONE', #74, #193, #58 ) ;
#14 = FACE_BOUND ( 'NONE', #96, .T. ) ;
#15 = APPROVAL_PERSON_ORGANIZATION ( #98, #94, #214 ) ;
#16 = DIRECTION ( 'NONE',  ( -3.491481338843133355E-15, 9.031770143711729009E-17, -1.000000000000000000 ) ) ;
#17 = CARTESIAN_POINT ( 'NONE',  ( 4.885231259955590439E-14, 1.999999999999990452, 13.99185842870425134 ) ) ;
#18 = FACE_BOUND ( 'NONE', #7, .T. ) ;
#19 = EDGE_CURVE ( 'NONE', #42, #42, #119, .T. ) ;
#20 = AXIS2_PLACEMENT_3D ( 'NONE', #183, #142, #184 ) ;
#21 = VERTEX_POINT ( 'NONE', #80 ) ;
#22 = DATE_TIME_ROLE ( 'classification_date' ) ;
#23 = DIRECTION ( 'NONE',  ( -3.491481338843133355E-15, 9.031770143711729009E-17, -1.000000000000000000 ) ) ;
#24 = LOCAL_TIME ( 11, 4, 38.00000000000000000, #116 ) ;
#25 = PERSON_AND_ORGANIZATION_ROLE ( 'creator' ) ;
#26 = PERSON_AND_ORGANIZATION_ROLE ( 'creator' ) ;
#27 = ORIENTED_EDGE ( 'NONE', *, *, #145, .F. ) ;
#28 = CIRCLE ( 'NONE', #86, 3.069999999999996732 ) ;
#29 = CARTESIAN_POINT ( 'NONE',  ( 4.238156991192198202E-14, -1.096327205062361149E-15, 12.13856406460550730 ) ) ;
#30 = AXIS2_PLACEMENT_3D ( 'NONE', #201, #90, #32 ) ;
#31 = CC_DESIGN_PERSON_AND_ORGANIZATION_ASSIGNMENT ( #131, #233, ( #167 ) ) ;
#32 = DIRECTION ( 'NONE',  ( 0.0000000000000000000, 1.000000000000000000, 0.0000000000000000000 ) ) ;
#33 = DIRECTION ( 'NONE',  ( -3.491481338843133355E-15, -5.621821190106113518E-16, -1.000000000000000000 ) ) ;
#34 = PLANE ( 'NONE',  #210 ) ;
#35 = DIRECTION ( 'NONE',  ( 0.0000000000000000000, 1.000000000000000000, 0.0000000000000000000 ) ) ;
#36 = FACE_OUTER_BOUND ( 'NONE', #165, .T. ) ;
#37 = APPLICATION_CONTEXT ( 'configuration controlled 3d designs of mechanical parts and assemblies' ) ;
#38 = CARTESIAN_POINT ( 'NONE',  ( 5.572644103435159615E-30, 8.972812873744877698E-31, 1.596068706264830936E-15 ) ) ;
#39 = LOCAL_TIME ( 11, 4, 38.00000000000000000, #47 ) ;
#40 = FACE_OUTER_BOUND ( 'NONE', #200, .T. ) ;
#41 = CALENDAR_DATE ( 2021, 26, 11 ) ;
#42 = VERTEX_POINT ( 'NONE', #118 ) ;
#43 = COORDINATED_UNIVERSAL_TIME_OFFSET ( 1, 0, .AHEAD. ) ;
#44 = FACE_OUTER_BOUND ( 'NONE', #81, .T. ) ;
#45 = CC_DESIGN_PERSON_AND_ORGANIZATION_ASSIGNMENT ( #129, #26, ( #92 ) ) ;
#46 = CARTESIAN_POINT ( 'NONE',  ( 2.793185071074506684E-13, -7.225416114969383207E-15, 80.00000000000000000 ) ) ;
#47 = COORDINATED_UNIVERSAL_TIME_OFFSET ( 1, 0, .AHEAD. ) ;
#48 = DATE_AND_TIME ( #41, #161 ) ;
#49 = DIRECTION ( 'NONE',  ( 0.0000000000000000000, 0.0000000000000000000, 1.000000000000000000 ) ) ;
#50 = ORIENTED_EDGE ( 'NONE', *, *, #132, .T. ) ;
#51 = ADVANCED_FACE ( 'NONE', ( #136, #223 ), #65, .T. ) ;
#52 = ORIENTED_EDGE ( 'NONE', *, *, #145, .T. ) ;
#53 = PRODUCT_RELATED_PRODUCT_CATEGORY ( 'detail', '', ( #167 ) ) ;
#54 = CARTESIAN_POINT ( 'NONE',  ( 2.793185071074506684E-13, 1.599999999999987876, 80.00000000000000000 ) ) ;
#55 = AXIS2_PLACEMENT_3D ( 'NONE', #72, #97, #213 ) ;
#56 = DIRECTION ( 'NONE',  ( 0.0000000000000000000, 1.000000000000000000, 0.0000000000000000000 ) ) ;
#57 = CC_DESIGN_SECURITY_CLASSIFICATION ( #158, ( #92 ) ) ;
#58 = DIRECTION ( 'NONE',  ( -3.153425691349006731E-31, -1.000000000000000000, -9.031770143711729009E-17 ) ) ;
#59 = CC_DESIGN_PERSON_AND_ORGANIZATION_ASSIGNMENT ( #173, #8, ( #158 ) ) ;
#60 = CIRCLE ( 'NONE', #186, 1.599999999999994982 ) ;
#61 = MECHANICAL_CONTEXT ( 'NONE', #37, 'mechanical' ) ;
#62 = DIRECTION ( 'NONE',  ( -2.007483981120247870E-30, 1.000000000000000000, -5.650565068328367585E-16 ) ) ;
#63 = UNCERTAINTY_MEASURE_WITH_UNIT (LENGTH_MEASURE( 1.000000000000000082E-05 ), #178, 'distance_accuracy_value', 'NONE');
#64 = APPROVAL_STATUS ( 'not_yet_approved' ) ;
#65 = CONICAL_SURFACE ( 'NONE', #143, 1.999999999999995337, 0.7853981633974516097 ) ;
#66 = APPROVAL_STATUS ( 'not_yet_approved' ) ;
#67 = EDGE_CURVE ( 'NONE', #101, #101, #2, .T. ) ;
#68 = CARTESIAN_POINT ( 'NONE',  ( 1.396592535537253539E-15, 3.070000000000003837, 0.4000000000000000222 ) ) ;
#69 = CC_DESIGN_APPROVAL ( #199, ( #138 ) ) ;
#70 = ADVANCED_FACE ( 'NONE', ( #14, #91 ), #78, .T. ) ;
#71 = AXIS2_PLACEMENT_3D ( 'NONE', #222, #137, #95 ) ;
#72 = CARTESIAN_POINT ( 'NONE',  ( 5.572644103435159615E-30, 8.972812873744877698E-31, 1.596068706264830936E-15 ) ) ;
#73 = ORIENTED_EDGE ( 'NONE', *, *, #128, .F. ) ;
#74 = CARTESIAN_POINT ( 'NONE',  ( 2.793185071074506684E-13, -7.225416114969383207E-15, 80.00000000000000000 ) ) ;
#75 = EDGE_CURVE ( 'NONE', #21, #21, #220, .T. ) ;
#76 = APPROVAL_ROLE ( '' ) ;
#77 = CARTESIAN_POINT ( 'NONE',  ( 4.238156991192198833E-14, 6.824083667585984236E-15, 12.13856406460550907 ) ) ;
#78 = CONICAL_SURFACE ( 'NONE', #240, 3.070000000000005169, 0.5235987755982935976 ) ;
#79 = DATE_AND_TIME ( #191, #39 ) ;
#80 = CARTESIAN_POINT ( 'NONE',  ( -6.842277657836020854E-46, 2.839059892324153900, 0.0000000000000000000 ) ) ;
#81 = EDGE_LOOP ( 'NONE', ( #239 ) ) ;
#82 = ADVANCED_FACE ( 'NONE', ( #36, #93 ), #221, .T. ) ;
#83 = EDGE_LOOP ( 'NONE', ( #104 ) ) ;
#84 = CALENDAR_DATE ( 2021, 26, 11 ) ;
#85 = ORIENTED_EDGE ( 'NONE', *, *, #128, .T. ) ;
#86 = AXIS2_PLACEMENT_3D ( 'NONE', #77, #133, #62 ) ;
#87 = EDGE_LOOP ( 'NONE', ( #85 ) ) ;
#88 = DIRECTION ( 'NONE',  ( -3.491481338843133355E-15, -5.621821190106113518E-16, -1.000000000000000000 ) ) ;
#89 = CLOSED_SHELL ( 'NONE', ( #203, #82, #109, #144 ) ) ;
#90 = DIRECTION ( 'NONE',  ( -3.491481338843133355E-15, 9.031770143711729009E-17, -1.000000000000000000 ) ) ;
#91 = FACE_OUTER_BOUND ( 'NONE', #83, .T. ) ;
#92 = PRODUCT_DEFINITION_FORMATION_WITH_SPECIFIED_SOURCE ( 'ANY', '', #167, .NOT_KNOWN. ) ;
#93 = FACE_OUTER_BOUND ( 'NONE', #219, .T. ) ;
#94 = APPROVAL ( #4, 'UNSPECIFIED' ) ;
#95 = DIRECTION ( 'NONE',  ( -1.944750106710235931E-30, 1.000000000000000000, -5.650565068328355752E-16 ) ) ;
#96 = EDGE_LOOP ( 'NONE', ( #52 ) ) ;
#97 = DIRECTION ( 'NONE',  ( 3.491481338843133355E-15, 5.621821190106113518E-16, 1.000000000000000000 ) ) ;
#98 = PERSON_AND_ORGANIZATION ( #182, #207 ) ;
#99 = DIRECTION ( 'NONE',  ( 0.0000000000000000000, 1.000000000000000000, 0.0000000000000000000 ) ) ;
#100 = DATE_AND_TIME ( #192, #24 ) ;
#101 = VERTEX_POINT ( 'NONE', #187 ) ;
#102 = AXIS2_PLACEMENT_3D ( 'NONE', #6, #49, #216 ) ;
#103 = COORDINATED_UNIVERSAL_TIME_OFFSET ( 1, 0, .AHEAD. ) ;
#104 = ORIENTED_EDGE ( 'NONE', *, *, #19, .F. ) ;
#105 = PERSON_AND_ORGANIZATION_ROLE ( 'design_supplier' ) ;
#106 = CYLINDRICAL_SURFACE ( 'NONE', #147, 1.999999999999993561 ) ;
#107 = CIRCLE ( 'NONE', #242, 1.999999999999991784 ) ;
#108 = DIRECTION ( 'NONE',  ( -3.491481338843133355E-15, 9.031770143711729009E-17, -1.000000000000000000 ) ) ;
#109 = ADVANCED_FACE ( 'NONE', ( #206, #18 ), #130, .T. ) ;
#110 = CC_DESIGN_PERSON_AND_ORGANIZATION_ASSIGNMENT ( #10, #105, ( #92 ) ) ;
#111 = DIRECTION ( 'NONE',  ( 0.0000000000000000000, 1.000000000000000000, 0.0000000000000000000 ) ) ;
#112 = COORDINATED_UNIVERSAL_TIME_OFFSET ( 1, 0, .AHEAD. ) ;
#113 = AXIS2_PLACEMENT_3D ( 'NONE', #38, #33, #204 ) ;
#114 = DATE_AND_TIME ( #84, #135 ) ;
#115 = DESIGN_CONTEXT ( 'detailed design', #234, 'design' ) ;
#116 = COORDINATED_UNIVERSAL_TIME_OFFSET ( 1, 0, .AHEAD. ) ;
#117 = SHAPE_DEFINITION_REPRESENTATION ( #229, #160 ) ;
#118 = CARTESIAN_POINT ( 'NONE',  ( 4.238156991192198202E-14, 3.070000000000003837, 12.13856406460550730 ) ) ;
#119 = CIRCLE ( 'NONE', #176, 3.070000000000005169 ) ;
#120 = EDGE_LOOP ( 'NONE', ( #175 ) ) ;
#121 = DATE_AND_TIME ( #146, #122 ) ;
#122 = LOCAL_TIME ( 11, 4, 38.00000000000000000, #112 ) ;
#123 = DIRECTION ( 'NONE',  ( -1.962848377556839162E-30, 1.000000000000000000, -5.621821190106113518E-16 ) ) ;
#124 = DIRECTION ( 'NONE',  ( -1.962848377556839162E-30, 1.000000000000000000, -5.621821190106113518E-16 ) ) ;
#125 = PLANE ( 'NONE',  #20 ) ;
#126 = CIRCLE ( 'NONE', #71, 3.070000000000003393 ) ;
#127 = EDGE_LOOP ( 'NONE', ( #9 ) ) ;
#128 = EDGE_CURVE ( 'NONE', #149, #149, #60, .T. ) ;
#129 = PERSON_AND_ORGANIZATION ( #182, #207 ) ;
#130 = CONICAL_SURFACE ( 'NONE', #55, 2.839059892324153900, 0.5235987755982969283 ) ;
#131 = PERSON_AND_ORGANIZATION ( #182, #207 ) ;
#132 = EDGE_CURVE ( 'NONE', #227, #227, #126, .T. ) ;
#133 = DIRECTION ( 'NONE',  ( -3.491481338843133355E-15, -5.621821190106113518E-16, -1.000000000000000000 ) ) ;
#134 = AXIS2_PLACEMENT_3D ( 'NONE', #151, #88, #124 ) ;
#135 = LOCAL_TIME ( 11, 4, 38.00000000000000000, #43 ) ;
#136 = FACE_BOUND ( 'NONE', #87, .T. ) ;
#137 = DIRECTION ( 'NONE',  ( -3.491481338843133355E-15, -5.621821190106113518E-16, -1.000000000000000000 ) ) ;
#138 = PRODUCT_DEFINITION ( 'UNKNOWN', '', #92, #115 ) ;
#139 = CARTESIAN_POINT ( 'NONE',  ( 4.238156991192198202E-14, -1.096327205062361149E-15, 12.13856406460550730 ) ) ;
#140 = FACE_OUTER_BOUND ( 'NONE', #120, .T. ) ;
#141 = VERTEX_POINT ( 'NONE', #202 ) ;
#142 = DIRECTION ( 'NONE',  ( -3.491481338843133355E-15, 9.031770143711729009E-17, -1.000000000000000000 ) ) ;
#143 = AXIS2_PLACEMENT_3D ( 'NONE', #225, #163, #56 ) ;
#144 = ADVANCED_FACE ( 'NONE', ( #140 ), #34, .T. ) ;
#145 = EDGE_CURVE ( 'NONE', #181, #181, #107, .T. ) ;
#146 = CALENDAR_DATE ( 2021, 26, 11 ) ;
#147 = AXIS2_PLACEMENT_3D ( 'NONE', #174, #209, #190 ) ;
#148 = APPROVAL_DATE_TIME ( #79, #94 ) ;
#149 = VERTEX_POINT ( 'NONE', #54 ) ;
#150 = ORIENTED_EDGE ( 'NONE', *, *, #75, .F. ) ;
#151 = CARTESIAN_POINT ( 'NONE',  ( 0.0000000000000000000, 0.0000000000000000000, 0.0000000000000000000 ) ) ;
#152 =( NAMED_UNIT ( * ) SI_UNIT ( $, .STERADIAN. ) SOLID_ANGLE_UNIT ( ) );
#153 = FACE_OUTER_BOUND ( 'NONE', #154, .T. ) ;
#154 = EDGE_LOOP ( 'NONE', ( #27 ) ) ;
#155 = ADVANCED_FACE ( 'NONE', ( #226 ), #125, .T. ) ;
#156 = MANIFOLD_SOLID_BREP ( 'Corps-Déplacer/Copier1[1]', #157 ) ;
#157 = CLOSED_SHELL ( 'NONE', ( #177, #51, #228, #70, #155 ) ) ;
#158 = SECURITY_CLASSIFICATION ( '', '', #211 ) ;
#159 = CARTESIAN_POINT ( 'NONE',  ( -2.786322051717579807E-30, 2.839059892324153900, -7.980343531324154678E-16 ) ) ;
#160 = ADVANCED_BREP_SHAPE_REPRESENTATION ( '321517', ( #156, #243, #102 ), #197 ) ;
#161 = LOCAL_TIME ( 11, 4, 38.00000000000000000, #103 ) ;
#162 = DIRECTION ( 'NONE',  ( 0.0000000000000000000, 1.000000000000000000, 0.0000000000000000000 ) ) ;
#163 = DIRECTION ( 'NONE',  ( -3.491481338843133355E-15, 9.031770143711729009E-17, -1.000000000000000000 ) ) ;
#164 = CC_DESIGN_DATE_AND_TIME_ASSIGNMENT ( #114, #22, ( #158 ) ) ;
#165 = EDGE_LOOP ( 'NONE', ( #198 ) ) ;
#166 = APPROVAL_DATE_TIME ( #100, #199 ) ;
#167 = PRODUCT ( '321517', '321517', '', ( #61 ) ) ;
#168 = APPLICATION_PROTOCOL_DEFINITION ( 'international standard', 'config_control_design', 1994, #37 ) ;
#169 = APPROVAL_ROLE ( '' ) ;
#170 = CC_DESIGN_APPROVAL ( #94, ( #158 ) ) ;
#171 = PERSON_AND_ORGANIZATION ( #182, #207 ) ;
#172 = EDGE_LOOP ( 'NONE', ( #50 ) ) ;
#173 = PERSON_AND_ORGANIZATION ( #182, #207 ) ;
#174 = CARTESIAN_POINT ( 'NONE',  ( 0.0000000000000000000, 0.0000000000000000000, 0.0000000000000000000 ) ) ;
#175 = ORIENTED_EDGE ( 'NONE', *, *, #75, .T. ) ;
#176 = AXIS2_PLACEMENT_3D ( 'NONE', #29, #108, #162 ) ;
#177 = ADVANCED_FACE ( 'NONE', ( #40 ), #185, .T. ) ;
#178 =( LENGTH_UNIT ( ) NAMED_UNIT ( * ) SI_UNIT ( .MILLI., .METRE. ) );
#179 = CARTESIAN_POINT ( 'NONE',  ( 4.885231259955590439E-14, -1.263712492114123682E-15, 13.99185842870425134 ) ) ;
#180 = CC_DESIGN_APPROVAL ( #205, ( #92 ) ) ;
#181 = VERTEX_POINT ( 'NONE', #17 ) ;
#182 = PERSON ( 'UNSPECIFIED', 'UNSPECIFIED', 'UNSPECIFIED', ('UNSPECIFIED'), ('UNSPECIFIED'), ('UNSPECIFIED') ) ;
#183 = CARTESIAN_POINT ( 'NONE',  ( 4.238156991192197571E-14, 3.070000000000003837, 12.13856406460550552 ) ) ;
#184 = DIRECTION ( 'NONE',  ( 3.153425691349006731E-31, 1.000000000000000000, 9.031770143711729009E-17 ) ) ;
#185 = PLANE ( 'NONE',  #13 ) ;
#186 = AXIS2_PLACEMENT_3D ( 'NONE', #46, #23, #99 ) ;
#187 = CARTESIAN_POINT ( 'NONE',  ( 2.779219145719134403E-13, 1.999999999999988010, 79.60000000000000853 ) ) ;
#188 = CC_DESIGN_DATE_AND_TIME_ASSIGNMENT ( #48, #189, ( #138 ) ) ;
#189 = DATE_TIME_ROLE ( 'creation_date' ) ;
#190 = DIRECTION ( 'NONE',  ( 3.153425691349006731E-31, 1.000000000000000000, 9.031770143711729009E-17 ) ) ;
#191 = CALENDAR_DATE ( 2021, 26, 11 ) ;
#192 = CALENDAR_DATE ( 2021, 26, 11 ) ;
#193 = DIRECTION ( 'NONE',  ( 3.491481338843133355E-15, -9.031770143711729009E-17, 1.000000000000000000 ) ) ;
#194 = EDGE_CURVE ( 'NONE', #141, #141, #28, .T. ) ;
#195 = APPROVAL_DATE_TIME ( #121, #205 ) ;
#196 = CARTESIAN_POINT ( 'NONE',  ( 4.238156991192197571E-14, 6.824083667585982659E-15, 12.13856406460550552 ) ) ;
#197 =( GEOMETRIC_REPRESENTATION_CONTEXT ( 3 ) GLOBAL_UNCERTAINTY_ASSIGNED_CONTEXT ( ( #63 ) ) GLOBAL_UNIT_ASSIGNED_CONTEXT ( ( #178, #231, #152 ) ) REPRESENTATION_CONTEXT ( 'NONE', 'WORKASPACE' ) );
#198 = ORIENTED_EDGE ( 'NONE', *, *, #194, .T. ) ;
#199 = APPROVAL ( #66, 'UNSPECIFIED' ) ;
#200 = EDGE_LOOP ( 'NONE', ( #73 ) ) ;
#201 = CARTESIAN_POINT ( 'NONE',  ( 2.779219145719134403E-13, -7.189289034394536528E-15, 79.60000000000000853 ) ) ;
#202 = CARTESIAN_POINT ( 'NONE',  ( 4.238156991192198202E-14, 3.070000000000003837, 12.13856406460550730 ) ) ;
#203 = ADVANCED_FACE ( 'NONE', ( #218 ), #212, .T. ) ;
#204 = DIRECTION ( 'NONE',  ( -1.962848377556839162E-30, 1.000000000000000000, -5.621821190106113518E-16 ) ) ;
#205 = APPROVAL ( #64, 'UNSPECIFIED' ) ;
#206 = FACE_OUTER_BOUND ( 'NONE', #172, .T. ) ;
#207 = ORGANIZATION ( 'UNSPECIFIED', 'UNSPECIFIED', '' ) ;
#208 = PERSON_AND_ORGANIZATION ( #182, #207 ) ;
#209 = DIRECTION ( 'NONE',  ( -3.491481338843133355E-15, 9.031770143711729009E-17, -1.000000000000000000 ) ) ;
#210 = AXIS2_PLACEMENT_3D ( 'NONE', #159, #241, #123 ) ;
#211 = SECURITY_CLASSIFICATION_LEVEL ( 'unclassified' ) ;
#212 = PLANE ( 'NONE',  #11 ) ;
#213 = DIRECTION ( 'NONE',  ( 1.962848377556839512E-30, -1.000000000000000000, 5.621821190106113518E-16 ) ) ;
#214 = APPROVAL_ROLE ( '' ) ;
#215 = DIRECTION ( 'NONE',  ( 1.962848377556839162E-30, -1.000000000000000000, 5.621821190106113518E-16 ) ) ;
#216 = DIRECTION ( 'NONE',  ( 1.000000000000000000, 0.0000000000000000000, 0.0000000000000000000 ) ) ;
#217 = APPLICATION_PROTOCOL_DEFINITION ( 'international standard', 'config_control_design', 1994, #234 ) ;
#218 = FACE_OUTER_BOUND ( 'NONE', #3, .T. ) ;
#219 = EDGE_LOOP ( 'NONE', ( #235 ) ) ;
#220 = CIRCLE ( 'NONE', #113, 2.839059892324153900 ) ;
#221 = CYLINDRICAL_SURFACE ( 'NONE', #134, 3.069999999999999840 ) ;
#222 = CARTESIAN_POINT ( 'NONE',  ( 1.396592535537259456E-15, 2.248728476042455268E-16, 0.4000000000000017431 ) ) ;
#223 = FACE_OUTER_BOUND ( 'NONE', #237, .T. ) ;
#224 = DIRECTION ( 'NONE',  ( -3.491481338843133355E-15, 9.031770143711729009E-17, -1.000000000000000000 ) ) ;
#225 = CARTESIAN_POINT ( 'NONE',  ( 2.779219145719134403E-13, -7.189289034394536528E-15, 79.60000000000000853 ) ) ;
#226 = FACE_OUTER_BOUND ( 'NONE', #127, .T. ) ;
#227 = VERTEX_POINT ( 'NONE', #68 ) ;
#228 = ADVANCED_FACE ( 'NONE', ( #44, #153 ), #106, .T. ) ;
#229 = PRODUCT_DEFINITION_SHAPE ( 'NONE', 'NONE',  #138 ) ;
#230 = APPROVAL_PERSON_ORGANIZATION ( #171, #205, #169 ) ;
#231 =( NAMED_UNIT ( * ) PLANE_ANGLE_UNIT ( ) SI_UNIT ( $, .RADIAN. ) );
#232 = DIRECTION ( 'NONE',  ( 3.491481338843133355E-15, 5.621821190106113518E-16, 1.000000000000000000 ) ) ;
#233 = PERSON_AND_ORGANIZATION_ROLE ( 'design_owner' ) ;
#234 = APPLICATION_CONTEXT ( 'configuration controlled 3d designs of mechanical parts and assemblies' ) ;
#235 = ORIENTED_EDGE ( 'NONE', *, *, #132, .F. ) ;
#236 = PERSON_AND_ORGANIZATION ( #182, #207 ) ;
#237 = EDGE_LOOP ( 'NONE', ( #12 ) ) ;
#238 = CC_DESIGN_PERSON_AND_ORGANIZATION_ASSIGNMENT ( #208, #25, ( #138 ) ) ;
#239 = ORIENTED_EDGE ( 'NONE', *, *, #67, .T. ) ;
#240 = AXIS2_PLACEMENT_3D ( 'NONE', #139, #224, #35 ) ;
#241 = DIRECTION ( 'NONE',  ( -3.491481338843133355E-15, -5.621821190106113518E-16, -1.000000000000000000 ) ) ;
#242 = AXIS2_PLACEMENT_3D ( 'NONE', #179, #16, #111 ) ;
#243 = MANIFOLD_SOLID_BREP ( 'Corps-Déplacer/Copier1[2]', #89 ) ;
ENDSEC;
END-ISO-10303-21;
