ISO-10303-21;
HEADER;
FILE_DESCRIPTION (( 'STEP AP203' ),
    '1' );
FILE_NAME ('321516.step',
    '2021-11-26T10:04:38',
    ( '' ),
    ( '' ),
    'SwSTEP 2.0',
    'SolidWorks 2019',
    '' );
FILE_SCHEMA (( 'CONFIG_CONTROL_DESIGN' ));
ENDSEC;

DATA;
#1 = FACE_OUTER_BOUND ( 'NONE', #176, .T. ) ;
#2 = APPROVAL ( #180, 'UNSPECIFIED' ) ;
#3 = CARTESIAN_POINT ( 'NONE',  ( 2.793185071074506684E-13, 1.599999999999987876, 80.00000000000000000 ) ) ;
#4 = AXIS2_PLACEMENT_3D ( 'NONE', #94, #78, #168 ) ;
#5 = APPROVAL_PERSON_ORGANIZATION ( #204, #174, #98 ) ;
#6 = CARTESIAN_POINT ( 'NONE',  ( 2.779219145719134403E-13, -7.189289034394536528E-15, 79.60000000000000853 ) ) ;
#7 = DIRECTION ( 'NONE',  ( 0.0000000000000000000, 1.000000000000000000, 0.0000000000000000000 ) ) ;
#8 = ORIENTED_EDGE ( 'NONE', *, *, #68, .T. ) ;
#9 = PRODUCT_RELATED_PRODUCT_CATEGORY ( 'detail', '', ( #44 ) ) ;
#10 = EDGE_LOOP ( 'NONE', ( #30 ) ) ;
#11 = CONICAL_SURFACE ( 'NONE', #38, 2.834059892324153562, 0.5235987755982969283 ) ;
#12 = VERTEX_POINT ( 'NONE', #29 ) ;
#13 = EDGE_LOOP ( 'NONE', ( #109 ) ) ;
#14 = APPROVAL_ROLE ( '' ) ;
#15 = CC_DESIGN_DATE_AND_TIME_ASSIGNMENT ( #117, #238, ( #120 ) ) ;
#16 = EDGE_LOOP ( 'NONE', ( #163 ) ) ;
#17 = DIRECTION ( 'NONE',  ( -3.491481338843133355E-15, 9.031770143711729009E-17, -1.000000000000000000 ) ) ;
#18 = APPROVAL_PERSON_ORGANIZATION ( #201, #42, #91 ) ;
#19 = DIRECTION ( 'NONE',  ( 1.960839299412226775E-30, -1.000000000000000000, 5.616066961600690402E-16 ) ) ;
#20 = MANIFOLD_SOLID_BREP ( 'Corps-Déplacer/Copier1[1]', #167 ) ;
#21 = CARTESIAN_POINT ( 'NONE',  ( 4.885231259955590439E-14, -1.263712492114123682E-15, 13.99185842870425134 ) ) ;
#22 = APPROVAL_STATUS ( 'not_yet_approved' ) ;
#23 = FACE_OUTER_BOUND ( 'NONE', #10, .T. ) ;
#24 = ADVANCED_FACE ( 'NONE', ( #33 ), #111, .T. ) ;
#25 = CC_DESIGN_PERSON_AND_ORGANIZATION_ASSIGNMENT ( #171, #47, ( #215 ) ) ;
#26 = APPROVAL_DATE_TIME ( #154, #42 ) ;
#27 = DESIGN_CONTEXT ( 'detailed design', #50, 'design' ) ;
#28 = CC_DESIGN_PERSON_AND_ORGANIZATION_ASSIGNMENT ( #221, #202, ( #243 ) ) ;
#29 = CARTESIAN_POINT ( 'NONE',  ( -6.842277657836020854E-46, 2.834059892324153562, 0.0000000000000000000 ) ) ;
#30 = ORIENTED_EDGE ( 'NONE', *, *, #213, .T. ) ;
#31 = FACE_OUTER_BOUND ( 'NONE', #13, .T. ) ;
#32 = CARTESIAN_POINT ( 'NONE',  ( 4.241180702728475707E-14, 3.065000000000003499, 12.14722431864335128 ) ) ;
#33 = FACE_OUTER_BOUND ( 'NONE', #70, .T. ) ;
#34 = CLOSED_SHELL ( 'NONE', ( #183, #115, #110, #36 ) ) ;
#35 = AXIS2_PLACEMENT_3D ( 'NONE', #101, #143, #226 ) ;
#36 = ADVANCED_FACE ( 'NONE', ( #242 ), #198, .T. ) ;
#37 = COORDINATED_UNIVERSAL_TIME_OFFSET ( 1, 0, .AHEAD. ) ;
#38 = AXIS2_PLACEMENT_3D ( 'NONE', #233, #87, #102 ) ;
#39 = CALENDAR_DATE ( 2021, 26, 11 ) ;
#40 = DIRECTION ( 'NONE',  ( -3.491481338843133355E-15, -5.616066961600690402E-16, -1.000000000000000000 ) ) ;
#41 = DIRECTION ( 'NONE',  ( -3.491481338843133355E-15, -5.616066961600690402E-16, -1.000000000000000000 ) ) ;
#42 = APPROVAL ( #22, 'UNSPECIFIED' ) ;
#43 = COORDINATED_UNIVERSAL_TIME_OFFSET ( 1, 0, .AHEAD. ) ;
#44 = PRODUCT ( '321516', '321516', '', ( #112 ) ) ;
#45 = CALENDAR_DATE ( 2021, 26, 11 ) ;
#46 = APPROVAL_STATUS ( 'not_yet_approved' ) ;
#47 = PERSON_AND_ORGANIZATION_ROLE ( 'classification_officer' ) ;
#48 = CIRCLE ( 'NONE', #197, 2.834059892324153562 ) ;
#49 = CYLINDRICAL_SURFACE ( 'NONE', #121, 1.999999999999993561 ) ;
#50 = APPLICATION_CONTEXT ( 'configuration controlled 3d designs of mechanical parts and assemblies' ) ;
#51 = DIRECTION ( 'NONE',  ( -3.491481338843133355E-15, 9.031770143711729009E-17, -1.000000000000000000 ) ) ;
#52 = ORIENTED_EDGE ( 'NONE', *, *, #187, .F. ) ;
#53 = EDGE_LOOP ( 'NONE', ( #8 ) ) ;
#54 = AXIS2_PLACEMENT_3D ( 'NONE', #135, #17, #71 ) ;
#55 = CALENDAR_DATE ( 2021, 26, 11 ) ;
#56 = ORIENTED_EDGE ( 'NONE', *, *, #213, .F. ) ;
#57 = FACE_OUTER_BOUND ( 'NONE', #146, .T. ) ;
#58 = APPROVAL_DATE_TIME ( #164, #2 ) ;
#59 = EDGE_CURVE ( 'NONE', #123, #123, #118, .T. ) ;
#60 = AXIS2_PLACEMENT_3D ( 'NONE', #6, #144, #7 ) ;
#61 = CC_DESIGN_PERSON_AND_ORGANIZATION_ASSIGNMENT ( #200, #136, ( #120 ) ) ;
#62 = LOCAL_TIME ( 11, 4, 38.00000000000000000, #37 ) ;
#63 = SECURITY_CLASSIFICATION_LEVEL ( 'unclassified' ) ;
#64 = EDGE_CURVE ( 'NONE', #194, #194, #131, .T. ) ;
#65 = AXIS2_PLACEMENT_3D ( 'NONE', #106, #229, #218 ) ;
#66 = FACE_OUTER_BOUND ( 'NONE', #16, .T. ) ;
#67 = DIRECTION ( 'NONE',  ( -3.491481338843133355E-15, 9.031770143711729009E-17, -1.000000000000000000 ) ) ;
#68 = EDGE_CURVE ( 'NONE', #125, #125, #160, .T. ) ;
#69 = CARTESIAN_POINT ( 'NONE',  ( 1.396592535537253539E-15, 3.065000000000003499, 0.4000000000000000222 ) ) ;
#70 = EDGE_LOOP ( 'NONE', ( #89 ) ) ;
#71 = DIRECTION ( 'NONE',  ( 0.0000000000000000000, 1.000000000000000000, 0.0000000000000000000 ) ) ;
#72 = SHAPE_DEFINITION_REPRESENTATION ( #134, #208 ) ;
#73 = AXIS2_PLACEMENT_3D ( 'NONE', #137, #40, #184 ) ;
#74 = APPROVAL_PERSON_ORGANIZATION ( #132, #2, #14 ) ;
#75 = ORIENTED_EDGE ( 'NONE', *, *, #237, .T. ) ;
#76 = ORGANIZATION ( 'UNSPECIFIED', 'UNSPECIFIED', '' ) ;
#77 = ADVANCED_FACE ( 'NONE', ( #23 ), #161, .T. ) ;
#78 = DIRECTION ( 'NONE',  ( -3.491481338843133355E-15, 9.031770143711729009E-17, -1.000000000000000000 ) ) ;
#79 = CIRCLE ( 'NONE', #60, 1.999999999999995337 ) ;
#80 = AXIS2_PLACEMENT_3D ( 'NONE', #126, #51, #178 ) ;
#81 = VERTEX_POINT ( 'NONE', #32 ) ;
#82 = CARTESIAN_POINT ( 'NONE',  ( 4.885231259955590439E-14, 1.999999999999990452, 13.99185842870425134 ) ) ;
#83 = EDGE_LOOP ( 'NONE', ( #195 ) ) ;
#84 = LOCAL_TIME ( 11, 4, 38.00000000000000000, #234 ) ;
#85 = CARTESIAN_POINT ( 'NONE',  ( 4.241180702728475707E-14, 3.065000000000003499, 12.14722431864335128 ) ) ;
#86 = CARTESIAN_POINT ( 'NONE',  ( 2.793185071074506684E-13, -7.225416114969383207E-15, 80.00000000000000000 ) ) ;
#87 = DIRECTION ( 'NONE',  ( 3.491481338843133355E-15, 5.616066961600690402E-16, 1.000000000000000000 ) ) ;
#88 = APPLICATION_PROTOCOL_DEFINITION ( 'international standard', 'config_control_design', 1994, #50 ) ;
#89 = ORIENTED_EDGE ( 'NONE', *, *, #59, .F. ) ;
#90 = PERSON_AND_ORGANIZATION_ROLE ( 'design_owner' ) ;
#91 = APPROVAL_ROLE ( '' ) ;
#92 = AXIS2_PLACEMENT_3D ( 'NONE', #86, #148, #214 ) ;
#93 = CONICAL_SURFACE ( 'NONE', #124, 1.999999999999995337, 0.7853981633974516097 ) ;
#94 = CARTESIAN_POINT ( 'NONE',  ( 2.793185071074506684E-13, -7.225416114969383207E-15, 80.00000000000000000 ) ) ;
#95 = PERSON_AND_ORGANIZATION_ROLE ( 'design_supplier' ) ;
#96 = APPLICATION_CONTEXT ( 'configuration controlled 3d designs of mechanical parts and assemblies' ) ;
#97 = COORDINATED_UNIVERSAL_TIME_OFFSET ( 1, 0, .AHEAD. ) ;
#98 = APPROVAL_ROLE ( '' ) ;
#99 = CYLINDRICAL_SURFACE ( 'NONE', #170, 3.064999999999999947 ) ;
#100 = FACE_OUTER_BOUND ( 'NONE', #239, .T. ) ;
#101 = CARTESIAN_POINT ( 'NONE',  ( 4.241180702728475707E-14, -1.097109379300920642E-15, 12.14722431864335128 ) ) ;
#102 = DIRECTION ( 'NONE',  ( 1.960839299412227125E-30, -1.000000000000000000, 5.616066961600690402E-16 ) ) ;
#103 = VERTEX_POINT ( 'NONE', #85 ) ;
#104 = CC_DESIGN_PERSON_AND_ORGANIZATION_ASSIGNMENT ( #241, #90, ( #44 ) ) ;
#105 = CONICAL_SURFACE ( 'NONE', #54, 3.065000000000004832, 0.5235987755982932645 ) ;
#106 = CARTESIAN_POINT ( 'NONE',  ( 0.0000000000000000000, 0.0000000000000000000, 0.0000000000000000000 ) ) ;
#107 = FACE_BOUND ( 'NONE', #145, .T. ) ;
#108 = CARTESIAN_POINT ( 'NONE',  ( 2.779219145719134403E-13, 1.999999999999988010, 79.60000000000000853 ) ) ;
#109 = ORIENTED_EDGE ( 'NONE', *, *, #64, .T. ) ;
#110 = ADVANCED_FACE ( 'NONE', ( #31, #107 ), #11, .T. ) ;
#111 = PLANE ( 'NONE',  #92 ) ;
#112 = MECHANICAL_CONTEXT ( 'NONE', #96, 'mechanical' ) ;
#113 = EDGE_LOOP ( 'NONE', ( #230 ) ) ;
#114 = DIRECTION ( 'NONE',  ( 3.153425691349006731E-31, 1.000000000000000000, 9.031770143711729009E-17 ) ) ;
#115 = ADVANCED_FACE ( 'NONE', ( #190, #209 ), #99, .T. ) ;
#116 = CARTESIAN_POINT ( 'NONE',  ( 4.241180702728475076E-14, 6.821962517108536514E-15, 12.14722431864334951 ) ) ;
#117 = DATE_AND_TIME ( #39, #62 ) ;
#118 = CIRCLE ( 'NONE', #4, 1.599999999999994982 ) ;
#119 = LOCAL_TIME ( 11, 4, 38.00000000000000000, #97 ) ;
#120 = PRODUCT_DEFINITION ( 'UNKNOWN', '', #243, #27 ) ;
#121 = AXIS2_PLACEMENT_3D ( 'NONE', #207, #67, #114 ) ;
#122 = DIRECTION ( 'NONE',  ( -3.491481338843133355E-15, 9.031770143711729009E-17, -1.000000000000000000 ) ) ;
#123 = VERTEX_POINT ( 'NONE', #3 ) ;
#124 = AXIS2_PLACEMENT_3D ( 'NONE', #140, #122, #189 ) ;
#125 = VERTEX_POINT ( 'NONE', #82 ) ;
#126 = CARTESIAN_POINT ( 'NONE',  ( 4.241180702728475076E-14, 3.065000000000003499, 12.14722431864334951 ) ) ;
#127 = UNCERTAINTY_MEASURE_WITH_UNIT (LENGTH_MEASURE( 1.000000000000000082E-05 ), #175, 'distance_accuracy_value', 'NONE');
#128 = CARTESIAN_POINT ( 'NONE',  ( 4.241180702728476338E-14, 6.821962517108538881E-15, 12.14722431864335306 ) ) ;
#129 = ORIENTED_EDGE ( 'NONE', *, *, #187, .T. ) ;
#130 = FACE_BOUND ( 'NONE', #53, .T. ) ;
#131 = CIRCLE ( 'NONE', #73, 3.065000000000003055 ) ;
#132 = PERSON_AND_ORGANIZATION ( #240, #76 ) ;
#133 = CIRCLE ( 'NONE', #35, 3.065000000000004832 ) ;
#134 = PRODUCT_DEFINITION_SHAPE ( 'NONE', 'NONE',  #120 ) ;
#135 = CARTESIAN_POINT ( 'NONE',  ( 4.241180702728475707E-14, -1.097109379300920642E-15, 12.14722431864335128 ) ) ;
#136 = PERSON_AND_ORGANIZATION_ROLE ( 'creator' ) ;
#137 = CARTESIAN_POINT ( 'NONE',  ( 1.396592535537259456E-15, 2.246426784640286022E-16, 0.4000000000000017431 ) ) ;
#138 = ADVANCED_FACE ( 'NONE', ( #1, #66 ), #49, .T. ) ;
#139 = CALENDAR_DATE ( 2021, 26, 11 ) ;
#140 = CARTESIAN_POINT ( 'NONE',  ( 2.779219145719134403E-13, -7.189289034394536528E-15, 79.60000000000000853 ) ) ;
#141 = CC_DESIGN_SECURITY_CLASSIFICATION ( #215, ( #243 ) ) ;
#142 =( NAMED_UNIT ( * ) SI_UNIT ( $, .STERADIAN. ) SOLID_ANGLE_UNIT ( ) );
#143 = DIRECTION ( 'NONE',  ( -3.491481338843133355E-15, 9.031770143711729009E-17, -1.000000000000000000 ) ) ;
#144 = DIRECTION ( 'NONE',  ( -3.491481338843133355E-15, 9.031770143711729009E-17, -1.000000000000000000 ) ) ;
#145 = EDGE_LOOP ( 'NONE', ( #52 ) ) ;
#146 = EDGE_LOOP ( 'NONE', ( #56 ) ) ;
#147 =( NAMED_UNIT ( * ) PLANE_ANGLE_UNIT ( ) SI_UNIT ( $, .RADIAN. ) );
#148 = DIRECTION ( 'NONE',  ( 3.491481338843133355E-15, -9.031770143711729009E-17, 1.000000000000000000 ) ) ;
#149 =( GEOMETRIC_REPRESENTATION_CONTEXT ( 3 ) GLOBAL_UNCERTAINTY_ASSIGNED_CONTEXT ( ( #127 ) ) GLOBAL_UNIT_ASSIGNED_CONTEXT ( ( #175, #147, #142 ) ) REPRESENTATION_CONTEXT ( 'NONE', 'WORKASPACE' ) );
#150 = EDGE_LOOP ( 'NONE', ( #129 ) ) ;
#151 = DIRECTION ( 'NONE',  ( 0.0000000000000000000, 1.000000000000000000, 0.0000000000000000000 ) ) ;
#152 = AXIS2_PLACEMENT_3D ( 'NONE', #116, #182, #19 ) ;
#153 = FACE_BOUND ( 'NONE', #83, .T. ) ;
#154 = DATE_AND_TIME ( #158, #236 ) ;
#155 = DIRECTION ( 'NONE',  ( -1.960839299412226775E-30, 1.000000000000000000, -5.616066961600690402E-16 ) ) ;
#156 = APPROVAL_DATE_TIME ( #205, #174 ) ;
#157 = ADVANCED_FACE ( 'NONE', ( #130, #57 ), #105, .T. ) ;
#158 = CALENDAR_DATE ( 2021, 26, 11 ) ;
#159 = DIRECTION ( 'NONE',  ( -1.960839299412226775E-30, 1.000000000000000000, -5.616066961600690402E-16 ) ) ;
#160 = CIRCLE ( 'NONE', #165, 1.999999999999991784 ) ;
#161 = PLANE ( 'NONE',  #80 ) ;
#162 = DIRECTION ( 'NONE',  ( -2.010758832639204530E-30, 1.000000000000000000, -5.659782955878659406E-16 ) ) ;
#163 = ORIENTED_EDGE ( 'NONE', *, *, #68, .F. ) ;
#164 = DATE_AND_TIME ( #55, #84 ) ;
#165 = AXIS2_PLACEMENT_3D ( 'NONE', #21, #185, #151 ) ;
#166 = FACE_OUTER_BOUND ( 'NONE', #212, .T. ) ;
#167 = CLOSED_SHELL ( 'NONE', ( #24, #199, #138, #157, #77 ) ) ;
#168 = DIRECTION ( 'NONE',  ( 0.0000000000000000000, 1.000000000000000000, 0.0000000000000000000 ) ) ;
#169 = CC_DESIGN_PERSON_AND_ORGANIZATION_ASSIGNMENT ( #222, #95, ( #243 ) ) ;
#170 = AXIS2_PLACEMENT_3D ( 'NONE', #172, #227, #159 ) ;
#171 = PERSON_AND_ORGANIZATION ( #240, #76 ) ;
#172 = CARTESIAN_POINT ( 'NONE',  ( 0.0000000000000000000, 0.0000000000000000000, 0.0000000000000000000 ) ) ;
#173 = DATE_TIME_ROLE ( 'classification_date' ) ;
#174 = APPROVAL ( #46, 'UNSPECIFIED' ) ;
#175 =( LENGTH_UNIT ( ) NAMED_UNIT ( * ) SI_UNIT ( .MILLI., .METRE. ) );
#176 = EDGE_LOOP ( 'NONE', ( #75 ) ) ;
#177 = AXIS2_PLACEMENT_3D ( 'NONE', #128, #192, #162 ) ;
#178 = DIRECTION ( 'NONE',  ( 3.153425691349006731E-31, 1.000000000000000000, 9.031770143711729009E-17 ) ) ;
#179 = MANIFOLD_SOLID_BREP ( 'Corps-Déplacer/Copier1[2]', #34 ) ;
#180 = APPROVAL_STATUS ( 'not_yet_approved' ) ;
#181 = CC_DESIGN_APPROVAL ( #42, ( #243 ) ) ;
#182 = DIRECTION ( 'NONE',  ( 3.491481338843133355E-15, 5.616066961600690402E-16, 1.000000000000000000 ) ) ;
#183 = ADVANCED_FACE ( 'NONE', ( #166 ), #196, .T. ) ;
#184 = DIRECTION ( 'NONE',  ( -1.947922619119225228E-30, 1.000000000000000000, -5.659782955878647573E-16 ) ) ;
#185 = DIRECTION ( 'NONE',  ( -3.491481338843133355E-15, 9.031770143711729009E-17, -1.000000000000000000 ) ) ;
#186 = CARTESIAN_POINT ( 'NONE',  ( -2.778568006878591933E-30, 2.834059892324153562, -7.958135064239644069E-16 ) ) ;
#187 = EDGE_CURVE ( 'NONE', #12, #12, #48, .T. ) ;
#188 = DIRECTION ( 'NONE',  ( -3.491481338843133355E-15, -5.616066961600690402E-16, -1.000000000000000000 ) ) ;
#189 = DIRECTION ( 'NONE',  ( 0.0000000000000000000, 1.000000000000000000, 0.0000000000000000000 ) ) ;
#190 = FACE_OUTER_BOUND ( 'NONE', #235, .T. ) ;
#191 = VERTEX_POINT ( 'NONE', #108 ) ;
#192 = DIRECTION ( 'NONE',  ( -3.491481338843133355E-15, -5.616066961600690402E-16, -1.000000000000000000 ) ) ;
#193 = ORIENTED_EDGE ( 'NONE', *, *, #237, .F. ) ;
#194 = VERTEX_POINT ( 'NONE', #69 ) ;
#195 = ORIENTED_EDGE ( 'NONE', *, *, #59, .T. ) ;
#196 = PLANE ( 'NONE',  #152 ) ;
#197 = AXIS2_PLACEMENT_3D ( 'NONE', #211, #41, #155 ) ;
#198 = PLANE ( 'NONE',  #224 ) ;
#199 = ADVANCED_FACE ( 'NONE', ( #153, #100 ), #93, .T. ) ;
#200 = PERSON_AND_ORGANIZATION ( #240, #76 ) ;
#201 = PERSON_AND_ORGANIZATION ( #240, #76 ) ;
#202 = PERSON_AND_ORGANIZATION_ROLE ( 'creator' ) ;
#203 = CC_DESIGN_APPROVAL ( #174, ( #215 ) ) ;
#204 = PERSON_AND_ORGANIZATION ( #240, #76 ) ;
#205 = DATE_AND_TIME ( #139, #210 ) ;
#206 = CC_DESIGN_APPROVAL ( #2, ( #120 ) ) ;
#207 = CARTESIAN_POINT ( 'NONE',  ( 0.0000000000000000000, 0.0000000000000000000, 0.0000000000000000000 ) ) ;
#208 = ADVANCED_BREP_SHAPE_REPRESENTATION ( '321516', ( #20, #179, #65 ), #149 ) ;
#209 = FACE_OUTER_BOUND ( 'NONE', #113, .T. ) ;
#210 = LOCAL_TIME ( 11, 4, 38.00000000000000000, #220 ) ;
#211 = CARTESIAN_POINT ( 'NONE',  ( 5.557136013757183866E-30, 8.938683882046451255E-31, 1.591627012847928814E-15 ) ) ;
#212 = EDGE_LOOP ( 'NONE', ( #231 ) ) ;
#213 = EDGE_CURVE ( 'NONE', #81, #81, #133, .T. ) ;
#214 = DIRECTION ( 'NONE',  ( -3.153425691349006731E-31, -1.000000000000000000, -9.031770143711729009E-17 ) ) ;
#215 = SECURITY_CLASSIFICATION ( '', '', #63 ) ;
#216 = ORIENTED_EDGE ( 'NONE', *, *, #232, .T. ) ;
#217 = CC_DESIGN_DATE_AND_TIME_ASSIGNMENT ( #223, #173, ( #215 ) ) ;
#218 = DIRECTION ( 'NONE',  ( 1.000000000000000000, 0.0000000000000000000, 0.0000000000000000000 ) ) ;
#219 = DIRECTION ( 'NONE',  ( -1.960839299412226775E-30, 1.000000000000000000, -5.616066961600690402E-16 ) ) ;
#220 = COORDINATED_UNIVERSAL_TIME_OFFSET ( 1, 0, .AHEAD. ) ;
#221 = PERSON_AND_ORGANIZATION ( #240, #76 ) ;
#222 = PERSON_AND_ORGANIZATION ( #240, #76 ) ;
#223 = DATE_AND_TIME ( #45, #119 ) ;
#224 = AXIS2_PLACEMENT_3D ( 'NONE', #186, #188, #219 ) ;
#225 = CIRCLE ( 'NONE', #177, 3.064999999999996394 ) ;
#226 = DIRECTION ( 'NONE',  ( 0.0000000000000000000, 1.000000000000000000, 0.0000000000000000000 ) ) ;
#227 = DIRECTION ( 'NONE',  ( -3.491481338843133355E-15, -5.616066961600690402E-16, -1.000000000000000000 ) ) ;
#228 = APPLICATION_PROTOCOL_DEFINITION ( 'international standard', 'config_control_design', 1994, #96 ) ;
#229 = DIRECTION ( 'NONE',  ( 0.0000000000000000000, 0.0000000000000000000, 1.000000000000000000 ) ) ;
#230 = ORIENTED_EDGE ( 'NONE', *, *, #64, .F. ) ;
#231 = ORIENTED_EDGE ( 'NONE', *, *, #232, .F. ) ;
#232 = EDGE_CURVE ( 'NONE', #103, #103, #225, .T. ) ;
#233 = CARTESIAN_POINT ( 'NONE',  ( 5.557136013757183866E-30, 8.938683882046451255E-31, 1.591627012847928814E-15 ) ) ;
#234 = COORDINATED_UNIVERSAL_TIME_OFFSET ( 1, 0, .AHEAD. ) ;
#235 = EDGE_LOOP ( 'NONE', ( #216 ) ) ;
#236 = LOCAL_TIME ( 11, 4, 38.00000000000000000, #43 ) ;
#237 = EDGE_CURVE ( 'NONE', #191, #191, #79, .T. ) ;
#238 = DATE_TIME_ROLE ( 'creation_date' ) ;
#239 = EDGE_LOOP ( 'NONE', ( #193 ) ) ;
#240 = PERSON ( 'UNSPECIFIED', 'UNSPECIFIED', 'UNSPECIFIED', ('UNSPECIFIED'), ('UNSPECIFIED'), ('UNSPECIFIED') ) ;
#241 = PERSON_AND_ORGANIZATION ( #240, #76 ) ;
#242 = FACE_OUTER_BOUND ( 'NONE', #150, .T. ) ;
#243 = PRODUCT_DEFINITION_FORMATION_WITH_SPECIFIED_SOURCE ( 'ANY', '', #44, .NOT_KNOWN. ) ;
ENDSEC;
END-ISO-10303-21;
