ISO-10303-21;
HEADER;
FILE_DESCRIPTION (( 'STEP AP203' ),
    '1' );
FILE_NAME ('321515.step',
    '2021-11-26T10:04:37',
    ( '' ),
    ( '' ),
    'SwSTEP 2.0',
    'SolidWorks 2019',
    '' );
FILE_SCHEMA (( 'CONFIG_CONTROL_DESIGN' ));
ENDSEC;

DATA;
#1 = DIRECTION ( 'NONE',  ( 3.153425691349006731E-31, 1.000000000000000000, 9.031770143711729009E-17 ) ) ;
#2 = CC_DESIGN_PERSON_AND_ORGANIZATION_ASSIGNMENT ( #105, #103, ( #36 ) ) ;
#3 = CLOSED_SHELL ( 'NONE', ( #46, #196, #7, #198 ) ) ;
#4 = CIRCLE ( 'NONE', #158, 2.829059892324154113 ) ;
#5 = LOCAL_TIME ( 11, 4, 37.00000000000000000, #82 ) ;
#6 = FACE_BOUND ( 'NONE', #76, .T. ) ;
#7 = ADVANCED_FACE ( 'NONE', ( #138, #172 ), #33, .T. ) ;
#8 = PRODUCT_DEFINITION_FORMATION_WITH_SPECIFIED_SOURCE ( 'ANY', '', #62, .NOT_KNOWN. ) ;
#9 = MANIFOLD_SOLID_BREP ( 'Corps-Déplacer/Copier1[2]', #3 ) ;
#10 = APPLICATION_CONTEXT ( 'configuration controlled 3d designs of mechanical parts and assemblies' ) ;
#11 = ORIENTED_EDGE ( 'NONE', *, *, #232, .T. ) ;
#12 = DATE_AND_TIME ( #85, #112 ) ;
#13 = PRODUCT_RELATED_PRODUCT_CATEGORY ( 'detail', '', ( #62 ) ) ;
#14 = FACE_OUTER_BOUND ( 'NONE', #26, .T. ) ;
#15 = DIRECTION ( 'NONE',  ( -3.491481338843133355E-15, 9.031770143711729009E-17, -1.000000000000000000 ) ) ;
#16 = CARTESIAN_POINT ( 'NONE',  ( 2.793185071074506684E-13, -7.225416114969383207E-15, 80.00000000000000000 ) ) ;
#17 = APPROVAL ( #236, 'UNSPECIFIED' ) ;
#18 = DATE_AND_TIME ( #39, #141 ) ;
#19 = AXIS2_PLACEMENT_3D ( 'NONE', #80, #32, #177 ) ;
#20 = PERSON ( 'UNSPECIFIED', 'UNSPECIFIED', 'UNSPECIFIED', ('UNSPECIFIED'), ('UNSPECIFIED'), ('UNSPECIFIED') ) ;
#21 = PLANE ( 'NONE',  #72 ) ;
#22 = UNCERTAINTY_MEASURE_WITH_UNIT (LENGTH_MEASURE( 1.000000000000000082E-05 ), #169, 'distance_accuracy_value', 'NONE');
#23 = EDGE_LOOP ( 'NONE', ( #150 ) ) ;
#24 = AXIS2_PLACEMENT_3D ( 'NONE', #31, #176, #139 ) ;
#25 =( NAMED_UNIT ( * ) PLANE_ANGLE_UNIT ( ) SI_UNIT ( $, .RADIAN. ) );
#26 = EDGE_LOOP ( 'NONE', ( #63 ) ) ;
#27 = VERTEX_POINT ( 'NONE', #98 ) ;
#28 = AXIS2_PLACEMENT_3D ( 'NONE', #38, #224, #68 ) ;
#29 = APPROVAL_PERSON_ORGANIZATION ( #34, #17, #119 ) ;
#30 = ORIENTED_EDGE ( 'NONE', *, *, #171, .T. ) ;
#31 = CARTESIAN_POINT ( 'NONE',  ( 5.541656113518111830E-30, 8.904664317202065749E-31, 1.587193393207217590E-15 ) ) ;
#32 = DIRECTION ( 'NONE',  ( 3.491481338843133355E-15, 5.610320932100495445E-16, 1.000000000000000000 ) ) ;
#33 = CONICAL_SURFACE ( 'NONE', #24, 2.829059892324154113, 0.5235987755982969283 ) ;
#34 = PERSON_AND_ORGANIZATION ( #20, #181 ) ;
#35 = DIRECTION ( 'NONE',  ( -1.951105499215825177E-30, 1.000000000000000000, -5.669030967244461293E-16 ) ) ;
#36 = PRODUCT_DEFINITION ( 'UNKNOWN', '', #8, #203 ) ;
#37 = COORDINATED_UNIVERSAL_TIME_OFFSET ( 1, 0, .AHEAD. ) ;
#38 = CARTESIAN_POINT ( 'NONE',  ( 4.244204414264753211E-14, -1.097891553539480333E-15, 12.15588457268119527 ) ) ;
#39 = CALENDAR_DATE ( 2021, 26, 11 ) ;
#40 = APPROVAL_STATUS ( 'not_yet_approved' ) ;
#41 = CARTESIAN_POINT ( 'NONE',  ( 4.244204414264753842E-14, 6.819841366631080115E-15, 12.15588457268119704 ) ) ;
#42 = SECURITY_CLASSIFICATION ( '', '', #206 ) ;
#43 = DATE_TIME_ROLE ( 'classification_date' ) ;
#44 = FACE_OUTER_BOUND ( 'NONE', #166, .T. ) ;
#45 = APPROVAL_DATE_TIME ( #77, #118 ) ;
#46 = ADVANCED_FACE ( 'NONE', ( #104 ), #197, .T. ) ;
#47 = APPROVAL_STATUS ( 'not_yet_approved' ) ;
#48 = ORIENTED_EDGE ( 'NONE', *, *, #147, .T. ) ;
#49 = AXIS2_PLACEMENT_3D ( 'NONE', #243, #15, #1 ) ;
#50 = APPLICATION_PROTOCOL_DEFINITION ( 'international standard', 'config_control_design', 1994, #142 ) ;
#51 = CC_DESIGN_PERSON_AND_ORGANIZATION_ASSIGNMENT ( #87, #167, ( #8 ) ) ;
#52 = DIRECTION ( 'NONE',  ( -1.958833083934989421E-30, 1.000000000000000000, -5.610320932100495445E-16 ) ) ;
#53 = COORDINATED_UNIVERSAL_TIME_OFFSET ( 1, 0, .AHEAD. ) ;
#54 = FACE_OUTER_BOUND ( 'NONE', #74, .T. ) ;
#55 = COORDINATED_UNIVERSAL_TIME_OFFSET ( 1, 0, .AHEAD. ) ;
#56 = CARTESIAN_POINT ( 'NONE',  ( 2.779219145719134403E-13, -7.189289034394536528E-15, 79.60000000000000853 ) ) ;
#57 = CARTESIAN_POINT ( 'NONE',  ( 4.244204414264753211E-14, -1.097891553539480333E-15, 12.15588457268119527 ) ) ;
#58 = DIRECTION ( 'NONE',  ( -1.958833083934989421E-30, 1.000000000000000000, -5.610320932100495445E-16 ) ) ;
#59 = EDGE_LOOP ( 'NONE', ( #195 ) ) ;
#60 = DIRECTION ( 'NONE',  ( -3.491481338843133355E-15, 9.031770143711729009E-17, -1.000000000000000000 ) ) ;
#61 = EDGE_LOOP ( 'NONE', ( #233 ) ) ;
#62 = PRODUCT ( '321515', '321515', '', ( #238 ) ) ;
#63 = ORIENTED_EDGE ( 'NONE', *, *, #124, .T. ) ;
#64 = EDGE_LOOP ( 'NONE', ( #136 ) ) ;
#65 = CARTESIAN_POINT ( 'NONE',  ( 4.885231259955590439E-14, -1.263712492114123682E-15, 13.99185842870425134 ) ) ;
#66 = CC_DESIGN_APPROVAL ( #118, ( #42 ) ) ;
#67 = ADVANCED_FACE ( 'NONE', ( #14 ), #109, .T. ) ;
#68 = DIRECTION ( 'NONE',  ( 0.0000000000000000000, 1.000000000000000000, 0.0000000000000000000 ) ) ;
#69 = ADVANCED_BREP_SHAPE_REPRESENTATION ( '321515', ( #84, #9, #107 ), #199 ) ;
#70 = DIRECTION ( 'NONE',  ( 0.0000000000000000000, 1.000000000000000000, 0.0000000000000000000 ) ) ;
#71 = CIRCLE ( 'NONE', #204, 1.999999999999991784 ) ;
#72 = AXIS2_PLACEMENT_3D ( 'NONE', #182, #94, #52 ) ;
#73 =( NAMED_UNIT ( * ) SI_UNIT ( $, .STERADIAN. ) SOLID_ANGLE_UNIT ( ) );
#74 = EDGE_LOOP ( 'NONE', ( #48 ) ) ;
#75 = VERTEX_POINT ( 'NONE', #191 ) ;
#76 = EDGE_LOOP ( 'NONE', ( #30 ) ) ;
#77 = DATE_AND_TIME ( #207, #225 ) ;
#78 = VERTEX_POINT ( 'NONE', #96 ) ;
#79 = DATE_TIME_ROLE ( 'creation_date' ) ;
#80 = CARTESIAN_POINT ( 'NONE',  ( 4.244204414264753842E-14, 6.819841366631080115E-15, 12.15588457268119704 ) ) ;
#81 = AXIS2_PLACEMENT_3D ( 'NONE', #211, #239, #111 ) ;
#82 = COORDINATED_UNIVERSAL_TIME_OFFSET ( 1, 0, .AHEAD. ) ;
#83 = CARTESIAN_POINT ( 'NONE',  ( 1.396592535537259456E-15, 2.244128372840208433E-16, 0.4000000000000017431 ) ) ;
#84 = MANIFOLD_SOLID_BREP ( 'Corps-Déplacer/Copier1[1]', #92 ) ;
#85 = CALENDAR_DATE ( 2021, 26, 11 ) ;
#86 = LOCAL_TIME ( 11, 4, 37.00000000000000000, #55 ) ;
#87 = PERSON_AND_ORGANIZATION ( #20, #181 ) ;
#88 = DIRECTION ( 'NONE',  ( -3.153425691349006731E-31, -1.000000000000000000, -9.031770143711729009E-17 ) ) ;
#89 = EDGE_CURVE ( 'NONE', #192, #192, #125, .T. ) ;
#90 = PERSON_AND_ORGANIZATION ( #20, #181 ) ;
#91 = CIRCLE ( 'NONE', #149, 3.059999999999996945 ) ;
#92 = CLOSED_SHELL ( 'NONE', ( #200, #240, #101, #217, #67 ) ) ;
#93 = APPROVAL_ROLE ( '' ) ;
#94 = DIRECTION ( 'NONE',  ( -3.491481338843133355E-15, -5.610320932100495445E-16, -1.000000000000000000 ) ) ;
#95 = FACE_BOUND ( 'NONE', #154, .T. ) ;
#96 = CARTESIAN_POINT ( 'NONE',  ( 0.0000000000000000000, 2.829059892324154113, 0.0000000000000000000 ) ) ;
#97 = APPLICATION_PROTOCOL_DEFINITION ( 'international standard', 'config_control_design', 1994, #10 ) ;
#98 = CARTESIAN_POINT ( 'NONE',  ( 4.885231259955590439E-14, 1.999999999999990452, 13.99185842870425134 ) ) ;
#99 = CIRCLE ( 'NONE', #28, 3.060000000000004938 ) ;
#100 = CC_DESIGN_APPROVAL ( #180, ( #8 ) ) ;
#101 = ADVANCED_FACE ( 'NONE', ( #129, #163 ), #209, .T. ) ;
#102 = ORIENTED_EDGE ( 'NONE', *, *, #106, .F. ) ;
#103 = PERSON_AND_ORGANIZATION_ROLE ( 'creator' ) ;
#104 = FACE_OUTER_BOUND ( 'NONE', #59, .T. ) ;
#105 = PERSON_AND_ORGANIZATION ( #20, #181 ) ;
#106 = EDGE_CURVE ( 'NONE', #75, #75, #228, .T. ) ;
#107 = AXIS2_PLACEMENT_3D ( 'NONE', #226, #133, #179 ) ;
#108 = DIRECTION ( 'NONE',  ( -3.491481338843133355E-15, 9.031770143711729009E-17, -1.000000000000000000 ) ) ;
#109 = PLANE ( 'NONE',  #161 ) ;
#110 = CC_DESIGN_DATE_AND_TIME_ASSIGNMENT ( #222, #43, ( #42 ) ) ;
#111 = DIRECTION ( 'NONE',  ( 0.0000000000000000000, 1.000000000000000000, 0.0000000000000000000 ) ) ;
#112 = LOCAL_TIME ( 11, 4, 37.00000000000000000, #175 ) ;
#113 = FACE_OUTER_BOUND ( 'NONE', #193, .T. ) ;
#114 = VERTEX_POINT ( 'NONE', #132 ) ;
#115 = DIRECTION ( 'NONE',  ( -3.491481338843133355E-15, -5.610320932100495445E-16, -1.000000000000000000 ) ) ;
#116 = CARTESIAN_POINT ( 'NONE',  ( 1.396592535537253539E-15, 3.060000000000003606, 0.4000000000000000222 ) ) ;
#117 = CARTESIAN_POINT ( 'NONE',  ( 2.779219145719134403E-13, -7.189289034394536528E-15, 79.60000000000000853 ) ) ;
#118 = APPROVAL ( #40, 'UNSPECIFIED' ) ;
#119 = APPROVAL_ROLE ( '' ) ;
#120 = CC_DESIGN_SECURITY_CLASSIFICATION ( #42, ( #8 ) ) ;
#121 = EDGE_LOOP ( 'NONE', ( #170 ) ) ;
#122 = EDGE_LOOP ( 'NONE', ( #102 ) ) ;
#123 = DATE_AND_TIME ( #155, #5 ) ;
#124 = EDGE_CURVE ( 'NONE', #190, #190, #99, .T. ) ;
#125 = CIRCLE ( 'NONE', #184, 3.060000000000003162 ) ;
#126 = CARTESIAN_POINT ( 'NONE',  ( 4.244204414264753842E-14, 3.060000000000003606, 12.15588457268119704 ) ) ;
#127 = PLANE ( 'NONE',  #162 ) ;
#128 = CC_DESIGN_DATE_AND_TIME_ASSIGNMENT ( #12, #79, ( #36 ) ) ;
#129 = FACE_OUTER_BOUND ( 'NONE', #64, .T. ) ;
#130 = DIRECTION ( 'NONE',  ( -1.958833083934989421E-30, 1.000000000000000000, -5.610320932100496431E-16 ) ) ;
#131 = DIRECTION ( 'NONE',  ( -3.491481338843133355E-15, 9.031770143711729009E-17, -1.000000000000000000 ) ) ;
#132 = CARTESIAN_POINT ( 'NONE',  ( 2.793185071074506684E-13, 1.599999999999987876, 80.00000000000000000 ) ) ;
#133 = DIRECTION ( 'NONE',  ( 0.0000000000000000000, 0.0000000000000000000, 1.000000000000000000 ) ) ;
#134 = CARTESIAN_POINT ( 'NONE',  ( 4.244204414264753211E-14, 3.060000000000003606, 12.15588457268119527 ) ) ;
#135 = CC_DESIGN_PERSON_AND_ORGANIZATION_ASSIGNMENT ( #90, #220, ( #42 ) ) ;
#136 = ORIENTED_EDGE ( 'NONE', *, *, #106, .T. ) ;
#137 = DIRECTION ( 'NONE',  ( 0.0000000000000000000, 1.000000000000000000, 0.0000000000000000000 ) ) ;
#138 = FACE_OUTER_BOUND ( 'NONE', #227, .T. ) ;
#139 = DIRECTION ( 'NONE',  ( 1.958833083934989421E-30, -1.000000000000000000, 5.610320932100495445E-16 ) ) ;
#140 = CYLINDRICAL_SURFACE ( 'NONE', #215, 3.060000000000000053 ) ;
#141 = LOCAL_TIME ( 11, 4, 37.00000000000000000, #37 ) ;
#142 = APPLICATION_CONTEXT ( 'configuration controlled 3d designs of mechanical parts and assemblies' ) ;
#143 = PERSON_AND_ORGANIZATION_ROLE ( 'creator' ) ;
#144 = CALENDAR_DATE ( 2021, 26, 11 ) ;
#145 = DIRECTION ( 'NONE',  ( -2.014044386287307420E-30, 1.000000000000000000, -5.669030967244473126E-16 ) ) ;
#146 = CARTESIAN_POINT ( 'NONE',  ( 0.0000000000000000000, 0.0000000000000000000, 0.0000000000000000000 ) ) ;
#147 = EDGE_CURVE ( 'NONE', #188, #188, #91, .T. ) ;
#148 = FACE_OUTER_BOUND ( 'NONE', #121, .T. ) ;
#149 = AXIS2_PLACEMENT_3D ( 'NONE', #41, #160, #145 ) ;
#150 = ORIENTED_EDGE ( 'NONE', *, *, #232, .F. ) ;
#151 = DIRECTION ( 'NONE',  ( 0.0000000000000000000, 1.000000000000000000, 0.0000000000000000000 ) ) ;
#152 = ORIENTED_EDGE ( 'NONE', *, *, #89, .F. ) ;
#153 = PERSON_AND_ORGANIZATION ( #20, #181 ) ;
#154 = EDGE_LOOP ( 'NONE', ( #186 ) ) ;
#155 = CALENDAR_DATE ( 2021, 26, 11 ) ;
#156 = DIRECTION ( 'NONE',  ( 0.0000000000000000000, 1.000000000000000000, 0.0000000000000000000 ) ) ;
#157 = CC_DESIGN_PERSON_AND_ORGANIZATION_ASSIGNMENT ( #223, #143, ( #8 ) ) ;
#158 = AXIS2_PLACEMENT_3D ( 'NONE', #229, #115, #58 ) ;
#159 = EDGE_CURVE ( 'NONE', #27, #27, #71, .T. ) ;
#160 = DIRECTION ( 'NONE',  ( -3.491481338843133355E-15, -5.610320932100495445E-16, -1.000000000000000000 ) ) ;
#161 = AXIS2_PLACEMENT_3D ( 'NONE', #126, #183, #241 ) ;
#162 = AXIS2_PLACEMENT_3D ( 'NONE', #16, #187, #88 ) ;
#163 = FACE_OUTER_BOUND ( 'NONE', #61, .T. ) ;
#164 = APPROVAL_DATE_TIME ( #18, #180 ) ;
#165 = DIRECTION ( 'NONE',  ( -3.491481338843133355E-15, 9.031770143711729009E-17, -1.000000000000000000 ) ) ;
#166 = EDGE_LOOP ( 'NONE', ( #11 ) ) ;
#167 = PERSON_AND_ORGANIZATION_ROLE ( 'design_supplier' ) ;
#168 = AXIS2_PLACEMENT_3D ( 'NONE', #57, #131, #151 ) ;
#169 =( LENGTH_UNIT ( ) NAMED_UNIT ( * ) SI_UNIT ( .MILLI., .METRE. ) );
#170 = ORIENTED_EDGE ( 'NONE', *, *, #124, .F. ) ;
#171 = EDGE_CURVE ( 'NONE', #114, #114, #189, .T. ) ;
#172 = FACE_BOUND ( 'NONE', #23, .T. ) ;
#173 = PRODUCT_DEFINITION_SHAPE ( 'NONE', 'NONE',  #36 ) ;
#174 = APPROVAL_PERSON_ORGANIZATION ( #208, #118, #93 ) ;
#175 = COORDINATED_UNIVERSAL_TIME_OFFSET ( 1, 0, .AHEAD. ) ;
#176 = DIRECTION ( 'NONE',  ( 3.491481338843133355E-15, 5.610320932100495445E-16, 1.000000000000000000 ) ) ;
#177 = DIRECTION ( 'NONE',  ( 1.958833083934989421E-30, -1.000000000000000000, 5.610320932100495445E-16 ) ) ;
#178 = AXIS2_PLACEMENT_3D ( 'NONE', #117, #60, #137 ) ;
#179 = DIRECTION ( 'NONE',  ( 1.000000000000000000, 0.0000000000000000000, 0.0000000000000000000 ) ) ;
#180 = APPROVAL ( #47, 'UNSPECIFIED' ) ;
#181 = ORGANIZATION ( 'UNSPECIFIED', 'UNSPECIFIED', '' ) ;
#182 = CARTESIAN_POINT ( 'NONE',  ( -2.770828056759055915E-30, 2.829059892324154113, -7.935966966036087948E-16 ) ) ;
#183 = DIRECTION ( 'NONE',  ( -3.491481338843133355E-15, 9.031770143711729009E-17, -1.000000000000000000 ) ) ;
#184 = AXIS2_PLACEMENT_3D ( 'NONE', #83, #221, #35 ) ;
#185 = FACE_OUTER_BOUND ( 'NONE', #237, .T. ) ;
#186 = ORIENTED_EDGE ( 'NONE', *, *, #159, .T. ) ;
#187 = DIRECTION ( 'NONE',  ( 3.491481338843133355E-15, -9.031770143711729009E-17, 1.000000000000000000 ) ) ;
#188 = VERTEX_POINT ( 'NONE', #134 ) ;
#189 = CIRCLE ( 'NONE', #81, 1.599999999999994982 ) ;
#190 = VERTEX_POINT ( 'NONE', #213 ) ;
#191 = CARTESIAN_POINT ( 'NONE',  ( 2.779219145719134403E-13, 1.999999999999988010, 79.60000000000000853 ) ) ;
#192 = VERTEX_POINT ( 'NONE', #116 ) ;
#193 = EDGE_LOOP ( 'NONE', ( #235 ) ) ;
#194 = APPROVAL_PERSON_ORGANIZATION ( #153, #180, #234 ) ;
#195 = ORIENTED_EDGE ( 'NONE', *, *, #147, .F. ) ;
#196 = ADVANCED_FACE ( 'NONE', ( #54, #185 ), #140, .T. ) ;
#197 = PLANE ( 'NONE',  #19 ) ;
#198 = ADVANCED_FACE ( 'NONE', ( #44 ), #21, .T. ) ;
#199 =( GEOMETRIC_REPRESENTATION_CONTEXT ( 3 ) GLOBAL_UNCERTAINTY_ASSIGNED_CONTEXT ( ( #22 ) ) GLOBAL_UNIT_ASSIGNED_CONTEXT ( ( #169, #25, #73 ) ) REPRESENTATION_CONTEXT ( 'NONE', 'WORKASPACE' ) );
#200 = ADVANCED_FACE ( 'NONE', ( #113 ), #127, .T. ) ;
#201 = APPROVAL_DATE_TIME ( #123, #17 ) ;
#202 = PERSON_AND_ORGANIZATION_ROLE ( 'design_owner' ) ;
#203 = DESIGN_CONTEXT ( 'detailed design', #142, 'design' ) ;
#204 = AXIS2_PLACEMENT_3D ( 'NONE', #65, #165, #70 ) ;
#205 = CONICAL_SURFACE ( 'NONE', #168, 3.060000000000004938, 0.5235987755982930425 ) ;
#206 = SECURITY_CLASSIFICATION_LEVEL ( 'unclassified' ) ;
#207 = CALENDAR_DATE ( 2021, 26, 11 ) ;
#208 = PERSON_AND_ORGANIZATION ( #20, #181 ) ;
#209 = CYLINDRICAL_SURFACE ( 'NONE', #49, 1.999999999999993561 ) ;
#210 = AXIS2_PLACEMENT_3D ( 'NONE', #56, #108, #156 ) ;
#211 = CARTESIAN_POINT ( 'NONE',  ( 2.793185071074506684E-13, -7.225416114969383207E-15, 80.00000000000000000 ) ) ;
#212 = CONICAL_SURFACE ( 'NONE', #178, 1.999999999999995337, 0.7853981633974516097 ) ;
#213 = CARTESIAN_POINT ( 'NONE',  ( 4.244204414264753211E-14, 3.060000000000003606, 12.15588457268119527 ) ) ;
#214 = FACE_OUTER_BOUND ( 'NONE', #122, .T. ) ;
#215 = AXIS2_PLACEMENT_3D ( 'NONE', #146, #219, #130 ) ;
#216 = ORIENTED_EDGE ( 'NONE', *, *, #89, .T. ) ;
#217 = ADVANCED_FACE ( 'NONE', ( #95, #148 ), #205, .T. ) ;
#218 = PERSON_AND_ORGANIZATION ( #20, #181 ) ;
#219 = DIRECTION ( 'NONE',  ( -3.491481338843133355E-15, -5.610320932100495445E-16, -1.000000000000000000 ) ) ;
#220 = PERSON_AND_ORGANIZATION_ROLE ( 'classification_officer' ) ;
#221 = DIRECTION ( 'NONE',  ( -3.491481338843133355E-15, -5.610320932100495445E-16, -1.000000000000000000 ) ) ;
#222 = DATE_AND_TIME ( #144, #86 ) ;
#223 = PERSON_AND_ORGANIZATION ( #20, #181 ) ;
#224 = DIRECTION ( 'NONE',  ( -3.491481338843133355E-15, 9.031770143711729009E-17, -1.000000000000000000 ) ) ;
#225 = LOCAL_TIME ( 11, 4, 37.00000000000000000, #53 ) ;
#226 = CARTESIAN_POINT ( 'NONE',  ( 0.0000000000000000000, 0.0000000000000000000, 0.0000000000000000000 ) ) ;
#227 = EDGE_LOOP ( 'NONE', ( #216 ) ) ;
#228 = CIRCLE ( 'NONE', #210, 1.999999999999995337 ) ;
#229 = CARTESIAN_POINT ( 'NONE',  ( 5.541656113518111830E-30, 8.904664317202065749E-31, 1.587193393207217590E-15 ) ) ;
#230 = CC_DESIGN_APPROVAL ( #17, ( #36 ) ) ;
#231 = SHAPE_DEFINITION_REPRESENTATION ( #173, #69 ) ;
#232 = EDGE_CURVE ( 'NONE', #78, #78, #4, .T. ) ;
#233 = ORIENTED_EDGE ( 'NONE', *, *, #159, .F. ) ;
#234 = APPROVAL_ROLE ( '' ) ;
#235 = ORIENTED_EDGE ( 'NONE', *, *, #171, .F. ) ;
#236 = APPROVAL_STATUS ( 'not_yet_approved' ) ;
#237 = EDGE_LOOP ( 'NONE', ( #152 ) ) ;
#238 = MECHANICAL_CONTEXT ( 'NONE', #10, 'mechanical' ) ;
#239 = DIRECTION ( 'NONE',  ( -3.491481338843133355E-15, 9.031770143711729009E-17, -1.000000000000000000 ) ) ;
#240 = ADVANCED_FACE ( 'NONE', ( #6, #214 ), #212, .T. ) ;
#241 = DIRECTION ( 'NONE',  ( 3.153425691349006731E-31, 1.000000000000000000, 9.031770143711729009E-17 ) ) ;
#242 = CC_DESIGN_PERSON_AND_ORGANIZATION_ASSIGNMENT ( #218, #202, ( #62 ) ) ;
#243 = CARTESIAN_POINT ( 'NONE',  ( 0.0000000000000000000, 0.0000000000000000000, 0.0000000000000000000 ) ) ;
ENDSEC;
END-ISO-10303-21;
