ISO-10303-21;
HEADER;
FILE_DESCRIPTION (( 'STEP AP203' ),
    '1' );
FILE_NAME ('321514.step',
    '2021-11-26T10:04:36',
    ( '' ),
    ( '' ),
    'SwSTEP 2.0',
    'SolidWorks 2019',
    '' );
FILE_SCHEMA (( 'CONFIG_CONTROL_DESIGN' ));
ENDSEC;

DATA;
#1 = CALENDAR_DATE ( 2021, 26, 11 ) ;
#2 = DIRECTION ( 'NONE',  ( -3.491481338843133355E-15, 9.031770143711729009E-17, -1.000000000000000000 ) ) ;
#3 = PRODUCT_DEFINITION_FORMATION_WITH_SPECIFIED_SOURCE ( 'ANY', '', #97, .NOT_KNOWN. ) ;
#4 = FACE_OUTER_BOUND ( 'NONE', #103, .T. ) ;
#5 = PRODUCT_DEFINITION_SHAPE ( 'NONE', 'NONE',  #87 ) ;
#6 = LOCAL_TIME ( 11, 4, 36.00000000000000000, #184 ) ;
#7 = AXIS2_PLACEMENT_3D ( 'NONE', #150, #46, #100 ) ;
#8 = APPROVAL ( #44, 'UNSPECIFIED' ) ;
#9 = APPLICATION_PROTOCOL_DEFINITION ( 'international standard', 'config_control_design', 1994, #175 ) ;
#10 = SECURITY_CLASSIFICATION_LEVEL ( 'unclassified' ) ;
#11 = DIRECTION ( 'NONE',  ( 3.153425691349006731E-31, 1.000000000000000000, 9.031770143711729009E-17 ) ) ;
#12 = CONICAL_SURFACE ( 'NONE', #93, 1.999999999999995337, 0.7853981633974516097 ) ;
#13 = ORIENTED_EDGE ( 'NONE', *, *, #172, .F. ) ;
#14 = ADVANCED_FACE ( 'NONE', ( #163, #38 ), #149, .T. ) ;
#15 = ORIENTED_EDGE ( 'NONE', *, *, #25, .F. ) ;
#16 = PERSON_AND_ORGANIZATION_ROLE ( 'creator' ) ;
#17 = DIRECTION ( 'NONE',  ( -1.956829725011113362E-30, 1.000000000000000000, -5.604583084094296652E-16 ) ) ;
#18 = DIRECTION ( 'NONE',  ( -3.491481338843133355E-15, -5.604583084094296652E-16, -1.000000000000000000 ) ) ;
#19 = PERSON ( 'UNSPECIFIED', 'UNSPECIFIED', 'UNSPECIFIED', ('UNSPECIFIED'), ('UNSPECIFIED'), ('UNSPECIFIED') ) ;
#20 = CARTESIAN_POINT ( 'NONE',  ( 2.793185071074506684E-13, 1.599999999999987876, 80.00000000000000000 ) ) ;
#21 = FACE_OUTER_BOUND ( 'NONE', #243, .T. ) ;
#22 = VERTEX_POINT ( 'NONE', #173 ) ;
#23 = LOCAL_TIME ( 11, 4, 36.00000000000000000, #43 ) ;
#24 = CLOSED_SHELL ( 'NONE', ( #68, #158, #14, #182, #187 ) ) ;
#25 = EDGE_CURVE ( 'NONE', #193, #193, #201, .T. ) ;
#26 = PLANE ( 'NONE',  #140 ) ;
#27 = PERSON_AND_ORGANIZATION ( #19, #176 ) ;
#28 = CARTESIAN_POINT ( 'NONE',  ( 4.247228125801030084E-14, -1.098673727778039826E-15, 12.16454482671903925 ) ) ;
#29 = MANIFOLD_SOLID_BREP ( 'Corps-Déplacer/Copier1[1]', #24 ) ;
#30 = EDGE_LOOP ( 'NONE', ( #179 ) ) ;
#31 = DIRECTION ( 'NONE',  ( 0.0000000000000000000, 0.0000000000000000000, 1.000000000000000000 ) ) ;
#32 = PRODUCT_RELATED_PRODUCT_CATEGORY ( 'detail', '', ( #97 ) ) ;
#33 = PERSON_AND_ORGANIZATION ( #19, #176 ) ;
#34 =( LENGTH_UNIT ( ) NAMED_UNIT ( * ) SI_UNIT ( .MILLI., .METRE. ) );
#35 = UNCERTAINTY_MEASURE_WITH_UNIT (LENGTH_MEASURE( 1.000000000000000082E-05 ), #34, 'distance_accuracy_value', 'NONE');
#36 = SECURITY_CLASSIFICATION ( '', '', #10 ) ;
#37 = ADVANCED_FACE ( 'NONE', ( #60, #220 ), #111, .T. ) ;
#38 = FACE_OUTER_BOUND ( 'NONE', #40, .T. ) ;
#39 = DIRECTION ( 'NONE',  ( 3.491481338843133355E-15, 5.604583084094296652E-16, 1.000000000000000000 ) ) ;
#40 = EDGE_LOOP ( 'NONE', ( #15 ) ) ;
#41 = ORIENTED_EDGE ( 'NONE', *, *, #105, .F. ) ;
#42 = ORIENTED_EDGE ( 'NONE', *, *, #232, .T. ) ;
#43 = COORDINATED_UNIVERSAL_TIME_OFFSET ( 1, 0, .AHEAD. ) ;
#44 = APPROVAL_STATUS ( 'not_yet_approved' ) ;
#45 = AXIS2_PLACEMENT_3D ( 'NONE', #82, #31, #104 ) ;
#46 = DIRECTION ( 'NONE',  ( -3.491481338843133355E-15, 9.031770143711729009E-17, -1.000000000000000000 ) ) ;
#47 = DIRECTION ( 'NONE',  ( -1.954298797905212835E-30, 1.000000000000000000, -5.678309250333241769E-16 ) ) ;
#48 = APPROVAL ( #205, 'UNSPECIFIED' ) ;
#49 = DIRECTION ( 'NONE',  ( 0.0000000000000000000, 1.000000000000000000, 0.0000000000000000000 ) ) ;
#50 = CIRCLE ( 'NONE', #107, 3.054999999999997051 ) ;
#51 = APPROVAL_PERSON_ORGANIZATION ( #33, #237, #235 ) ;
#52 = DIRECTION ( 'NONE',  ( -2.017340694611836446E-30, 1.000000000000000000, -5.678309250333252616E-16 ) ) ;
#53 = CC_DESIGN_DATE_AND_TIME_ASSIGNMENT ( #61, #65, ( #36 ) ) ;
#54 = AXIS2_PLACEMENT_3D ( 'NONE', #79, #2, #139 ) ;
#55 = CALENDAR_DATE ( 2021, 26, 11 ) ;
#56 = CARTESIAN_POINT ( 'NONE',  ( 0.0000000000000000000, 0.0000000000000000000, 0.0000000000000000000 ) ) ;
#57 = DIRECTION ( 'NONE',  ( -3.491481338843133355E-15, 9.031770143711729009E-17, -1.000000000000000000 ) ) ;
#58 = CC_DESIGN_PERSON_AND_ORGANIZATION_ASSIGNMENT ( #167, #118, ( #87 ) ) ;
#59 = CIRCLE ( 'NONE', #159, 1.999999999999995337 ) ;
#60 = FACE_OUTER_BOUND ( 'NONE', #143, .T. ) ;
#61 = DATE_AND_TIME ( #164, #6 ) ;
#62 = AXIS2_PLACEMENT_3D ( 'NONE', #56, #73, #11 ) ;
#63 = EDGE_CURVE ( 'NONE', #22, #22, #127, .T. ) ;
#64 = CARTESIAN_POINT ( 'NONE',  ( -2.763102171255794345E-30, 2.824059892324154220, -7.913839150494557986E-16 ) ) ;
#65 = DATE_TIME_ROLE ( 'classification_date' ) ;
#66 = PERSON_AND_ORGANIZATION ( #19, #176 ) ;
#67 = COORDINATED_UNIVERSAL_TIME_OFFSET ( 1, 0, .AHEAD. ) ;
#68 = ADVANCED_FACE ( 'NONE', ( #130 ), #74, .T. ) ;
#69 = FACE_OUTER_BOUND ( 'NONE', #89, .T. ) ;
#70 = CARTESIAN_POINT ( 'NONE',  ( 5.526204342511588689E-30, 8.870753806620996237E-31, 1.582767830098911597E-15 ) ) ;
#71 = CC_DESIGN_PERSON_AND_ORGANIZATION_ASSIGNMENT ( #85, #160, ( #36 ) ) ;
#72 = EDGE_LOOP ( 'NONE', ( #116 ) ) ;
#73 = DIRECTION ( 'NONE',  ( -3.491481338843133355E-15, 9.031770143711729009E-17, -1.000000000000000000 ) ) ;
#74 = PLANE ( 'NONE',  #113 ) ;
#75 = DATE_TIME_ROLE ( 'creation_date' ) ;
#76 = PLANE ( 'NONE',  #54 ) ;
#77 = DATE_AND_TIME ( #1, #217 ) ;
#78 = CLOSED_SHELL ( 'NONE', ( #137, #37, #142, #147 ) ) ;
#79 = CARTESIAN_POINT ( 'NONE',  ( 4.247228125801030084E-14, 3.055000000000003713, 12.16454482671903925 ) ) ;
#80 = VERTEX_POINT ( 'NONE', #136 ) ;
#81 = CARTESIAN_POINT ( 'NONE',  ( 2.779219145719134403E-13, 1.999999999999988010, 79.60000000000000853 ) ) ;
#82 = CARTESIAN_POINT ( 'NONE',  ( 0.0000000000000000000, 0.0000000000000000000, 0.0000000000000000000 ) ) ;
#83 = PERSON_AND_ORGANIZATION_ROLE ( 'design_owner' ) ;
#84 = CIRCLE ( 'NONE', #7, 1.599999999999994982 ) ;
#85 = PERSON_AND_ORGANIZATION ( #19, #176 ) ;
#86 = AXIS2_PLACEMENT_3D ( 'NONE', #148, #162, #115 ) ;
#87 = PRODUCT_DEFINITION ( 'UNKNOWN', '', #3, #109 ) ;
#88 = CARTESIAN_POINT ( 'NONE',  ( 5.526204342511588689E-30, 8.870753806620996237E-31, 1.582767830098911597E-15 ) ) ;
#89 = EDGE_LOOP ( 'NONE', ( #13 ) ) ;
#90 = DATE_AND_TIME ( #96, #23 ) ;
#91 = ORIENTED_EDGE ( 'NONE', *, *, #232, .F. ) ;
#92 = APPROVAL_DATE_TIME ( #199, #237 ) ;
#93 = AXIS2_PLACEMENT_3D ( 'NONE', #101, #228, #210 ) ;
#94 = CC_DESIGN_APPROVAL ( #237, ( #87 ) ) ;
#95 = CARTESIAN_POINT ( 'NONE',  ( 4.247228125801030084E-14, -1.098673727778039826E-15, 12.16454482671903925 ) ) ;
#96 = CALENDAR_DATE ( 2021, 26, 11 ) ;
#97 = PRODUCT ( '321514', '321514', '', ( #214 ) ) ;
#98 = PERSON_AND_ORGANIZATION ( #19, #176 ) ;
#99 = CIRCLE ( 'NONE', #234, 3.055000000000005045 ) ;
#100 = DIRECTION ( 'NONE',  ( 0.0000000000000000000, 1.000000000000000000, 0.0000000000000000000 ) ) ;
#101 = CARTESIAN_POINT ( 'NONE',  ( 2.779219145719134403E-13, -7.189289034394536528E-15, 79.60000000000000853 ) ) ;
#102 = DIRECTION ( 'NONE',  ( 0.0000000000000000000, 1.000000000000000000, 0.0000000000000000000 ) ) ;
#103 = EDGE_LOOP ( 'NONE', ( #41 ) ) ;
#104 = DIRECTION ( 'NONE',  ( 1.000000000000000000, 0.0000000000000000000, 0.0000000000000000000 ) ) ;
#105 = EDGE_CURVE ( 'NONE', #80, #80, #99, .T. ) ;
#106 = APPROVAL_STATUS ( 'not_yet_approved' ) ;
#107 = AXIS2_PLACEMENT_3D ( 'NONE', #152, #121, #52 ) ;
#108 = LOCAL_TIME ( 11, 4, 36.00000000000000000, #67 ) ;
#109 = DESIGN_CONTEXT ( 'detailed design', #186, 'design' ) ;
#110 = MANIFOLD_SOLID_BREP ( 'Corps-Déplacer/Copier1[2]', #78 ) ;
#111 = CYLINDRICAL_SURFACE ( 'NONE', #231, 3.055000000000000604 ) ;
#112 = FACE_OUTER_BOUND ( 'NONE', #165, .T. ) ;
#113 = AXIS2_PLACEMENT_3D ( 'NONE', #133, #219, #223 ) ;
#114 = ORIENTED_EDGE ( 'NONE', *, *, #211, .T. ) ;
#115 = DIRECTION ( 'NONE',  ( 0.0000000000000000000, 1.000000000000000000, 0.0000000000000000000 ) ) ;
#116 = ORIENTED_EDGE ( 'NONE', *, *, #63, .T. ) ;
#117 = CONICAL_SURFACE ( 'NONE', #213, 3.055000000000005045, 0.5235987755982932645 ) ;
#118 = PERSON_AND_ORGANIZATION_ROLE ( 'creator' ) ;
#119 = DIRECTION ( 'NONE',  ( 1.956829725011113362E-30, -1.000000000000000000, 5.604583084094296652E-16 ) ) ;
#120 = DATE_AND_TIME ( #135, #238 ) ;
#121 = DIRECTION ( 'NONE',  ( -3.491481338843133355E-15, -5.604583084094296652E-16, -1.000000000000000000 ) ) ;
#122 = CC_DESIGN_PERSON_AND_ORGANIZATION_ASSIGNMENT ( #66, #83, ( #97 ) ) ;
#123 = AXIS2_PLACEMENT_3D ( 'NONE', #70, #39, #119 ) ;
#124 = FACE_OUTER_BOUND ( 'NONE', #72, .T. ) ;
#125 = CC_DESIGN_PERSON_AND_ORGANIZATION_ASSIGNMENT ( #98, #154, ( #3 ) ) ;
#126 = CONICAL_SURFACE ( 'NONE', #123, 2.824059892324154220, 0.5235987755982969283 ) ;
#127 = CIRCLE ( 'NONE', #153, 2.824059892324154220 ) ;
#128 = PLANE ( 'NONE',  #221 ) ;
#129 = EDGE_LOOP ( 'NONE', ( #114 ) ) ;
#130 = FACE_OUTER_BOUND ( 'NONE', #146, .T. ) ;
#131 = CC_DESIGN_APPROVAL ( #8, ( #3 ) ) ;
#132 = PERSON_AND_ORGANIZATION ( #19, #176 ) ;
#133 = CARTESIAN_POINT ( 'NONE',  ( 2.793185071074506684E-13, -7.225416114969383207E-15, 80.00000000000000000 ) ) ;
#134 = SHAPE_DEFINITION_REPRESENTATION ( #5, #216 ) ;
#135 = CALENDAR_DATE ( 2021, 26, 11 ) ;
#136 = CARTESIAN_POINT ( 'NONE',  ( 4.247228125801030084E-14, 3.055000000000003713, 12.16454482671903925 ) ) ;
#137 = ADVANCED_FACE ( 'NONE', ( #69 ), #128, .T. ) ;
#138 = CARTESIAN_POINT ( 'NONE',  ( 2.779219145719134403E-13, -7.189289034394536528E-15, 79.60000000000000853 ) ) ;
#139 = DIRECTION ( 'NONE',  ( 3.153425691349006731E-31, 1.000000000000000000, 9.031770143711729009E-17 ) ) ;
#140 = AXIS2_PLACEMENT_3D ( 'NONE', #64, #156, #196 ) ;
#141 = EDGE_LOOP ( 'NONE', ( #206 ) ) ;
#142 = ADVANCED_FACE ( 'NONE', ( #112, #239 ), #126, .T. ) ;
#143 = EDGE_LOOP ( 'NONE', ( #207 ) ) ;
#144 = CC_DESIGN_DATE_AND_TIME_ASSIGNMENT ( #77, #75, ( #87 ) ) ;
#145 = EDGE_LOOP ( 'NONE', ( #180 ) ) ;
#146 = EDGE_LOOP ( 'NONE', ( #188 ) ) ;
#147 = ADVANCED_FACE ( 'NONE', ( #124 ), #26, .T. ) ;
#148 = CARTESIAN_POINT ( 'NONE',  ( 4.885231259955590439E-14, -1.263712492114123682E-15, 13.99185842870425134 ) ) ;
#149 = CYLINDRICAL_SURFACE ( 'NONE', #62, 1.999999999999993561 ) ;
#150 = CARTESIAN_POINT ( 'NONE',  ( 2.793185071074506684E-13, -7.225416114969383207E-15, 80.00000000000000000 ) ) ;
#151 = PERSON_AND_ORGANIZATION ( #19, #176 ) ;
#152 = CARTESIAN_POINT ( 'NONE',  ( 4.247228125801030715E-14, 6.817720216153632393E-15, 12.16454482671904103 ) ) ;
#153 = AXIS2_PLACEMENT_3D ( 'NONE', #88, #161, #17 ) ;
#154 = PERSON_AND_ORGANIZATION_ROLE ( 'design_supplier' ) ;
#155 = DIRECTION ( 'NONE',  ( -3.491481338843133355E-15, 9.031770143711729009E-17, -1.000000000000000000 ) ) ;
#156 = DIRECTION ( 'NONE',  ( -3.491481338843133355E-15, -5.604583084094296652E-16, -1.000000000000000000 ) ) ;
#157 = VERTEX_POINT ( 'NONE', #20 ) ;
#158 = ADVANCED_FACE ( 'NONE', ( #227, #171 ), #12, .T. ) ;
#159 = AXIS2_PLACEMENT_3D ( 'NONE', #138, #212, #49 ) ;
#160 = PERSON_AND_ORGANIZATION_ROLE ( 'classification_officer' ) ;
#161 = DIRECTION ( 'NONE',  ( -3.491481338843133355E-15, -5.604583084094296652E-16, -1.000000000000000000 ) ) ;
#162 = DIRECTION ( 'NONE',  ( -3.491481338843133355E-15, 9.031770143711729009E-17, -1.000000000000000000 ) ) ;
#163 = FACE_OUTER_BOUND ( 'NONE', #129, .T. ) ;
#164 = CALENDAR_DATE ( 2021, 26, 11 ) ;
#165 = EDGE_LOOP ( 'NONE', ( #42 ) ) ;
#166 = APPROVAL_PERSON_ORGANIZATION ( #27, #48, #208 ) ;
#167 = PERSON_AND_ORGANIZATION ( #19, #176 ) ;
#168 = DIRECTION ( 'NONE',  ( 0.0000000000000000000, 1.000000000000000000, 0.0000000000000000000 ) ) ;
#169 = COORDINATED_UNIVERSAL_TIME_OFFSET ( 1, 0, .AHEAD. ) ;
#170 = CARTESIAN_POINT ( 'NONE',  ( 1.396592535537253539E-15, 3.055000000000003713, 0.4000000000000000222 ) ) ;
#171 = FACE_OUTER_BOUND ( 'NONE', #30, .T. ) ;
#172 = EDGE_CURVE ( 'NONE', #195, #195, #50, .T. ) ;
#173 = CARTESIAN_POINT ( 'NONE',  ( 0.0000000000000000000, 2.824059892324154220, 0.0000000000000000000 ) ) ;
#174 = VERTEX_POINT ( 'NONE', #81 ) ;
#175 = APPLICATION_CONTEXT ( 'configuration controlled 3d designs of mechanical parts and assemblies' ) ;
#176 = ORGANIZATION ( 'UNSPECIFIED', 'UNSPECIFIED', '' ) ;
#177 = CIRCLE ( 'NONE', #194, 3.055000000000003268 ) ;
#178 =( NAMED_UNIT ( * ) SI_UNIT ( $, .STERADIAN. ) SOLID_ANGLE_UNIT ( ) );
#179 = ORIENTED_EDGE ( 'NONE', *, *, #211, .F. ) ;
#180 = ORIENTED_EDGE ( 'NONE', *, *, #226, .T. ) ;
#181 = APPROVAL_PERSON_ORGANIZATION ( #151, #8, #189 ) ;
#182 = ADVANCED_FACE ( 'NONE', ( #225, #4 ), #117, .T. ) ;
#183 = ORIENTED_EDGE ( 'NONE', *, *, #63, .F. ) ;
#184 = COORDINATED_UNIVERSAL_TIME_OFFSET ( 1, 0, .AHEAD. ) ;
#185 = CARTESIAN_POINT ( 'NONE',  ( 0.0000000000000000000, 0.0000000000000000000, 0.0000000000000000000 ) ) ;
#186 = APPLICATION_CONTEXT ( 'configuration controlled 3d designs of mechanical parts and assemblies' ) ;
#187 = ADVANCED_FACE ( 'NONE', ( #21 ), #76, .T. ) ;
#188 = ORIENTED_EDGE ( 'NONE', *, *, #226, .F. ) ;
#189 = APPROVAL_ROLE ( '' ) ;
#190 = CARTESIAN_POINT ( 'NONE',  ( 1.396592535537259456E-15, 2.241833233637728817E-16, 0.4000000000000017431 ) ) ;
#191 = APPROVAL_DATE_TIME ( #120, #8 ) ;
#192 = DIRECTION ( 'NONE',  ( -3.491481338843133355E-15, -5.604583084094296652E-16, -1.000000000000000000 ) ) ;
#193 = VERTEX_POINT ( 'NONE', #224 ) ;
#194 = AXIS2_PLACEMENT_3D ( 'NONE', #190, #192, #47 ) ;
#195 = VERTEX_POINT ( 'NONE', #209 ) ;
#196 = DIRECTION ( 'NONE',  ( -1.956829725011113362E-30, 1.000000000000000000, -5.604583084094296652E-16 ) ) ;
#197 = CC_DESIGN_PERSON_AND_ORGANIZATION_ASSIGNMENT ( #132, #16, ( #3 ) ) ;
#198 = APPLICATION_PROTOCOL_DEFINITION ( 'international standard', 'config_control_design', 1994, #186 ) ;
#199 = DATE_AND_TIME ( #55, #108 ) ;
#200 = CC_DESIGN_APPROVAL ( #48, ( #36 ) ) ;
#201 = CIRCLE ( 'NONE', #86, 1.999999999999991784 ) ;
#202 = DIRECTION ( 'NONE',  ( 1.956829725011113362E-30, -1.000000000000000000, 5.604583084094296652E-16 ) ) ;
#203 = DIRECTION ( 'NONE',  ( 3.491481338843133355E-15, 5.604583084094296652E-16, 1.000000000000000000 ) ) ;
#204 = ORIENTED_EDGE ( 'NONE', *, *, #105, .T. ) ;
#205 = APPROVAL_STATUS ( 'not_yet_approved' ) ;
#206 = ORIENTED_EDGE ( 'NONE', *, *, #25, .T. ) ;
#207 = ORIENTED_EDGE ( 'NONE', *, *, #172, .T. ) ;
#208 = APPROVAL_ROLE ( '' ) ;
#209 = CARTESIAN_POINT ( 'NONE',  ( 4.247228125801030084E-14, 3.055000000000003713, 12.16454482671903925 ) ) ;
#210 = DIRECTION ( 'NONE',  ( 0.0000000000000000000, 1.000000000000000000, 0.0000000000000000000 ) ) ;
#211 = EDGE_CURVE ( 'NONE', #174, #174, #59, .T. ) ;
#212 = DIRECTION ( 'NONE',  ( -3.491481338843133355E-15, 9.031770143711729009E-17, -1.000000000000000000 ) ) ;
#213 = AXIS2_PLACEMENT_3D ( 'NONE', #28, #155, #102 ) ;
#214 = MECHANICAL_CONTEXT ( 'NONE', #175, 'mechanical' ) ;
#215 = EDGE_LOOP ( 'NONE', ( #91 ) ) ;
#216 = ADVANCED_BREP_SHAPE_REPRESENTATION ( '321514', ( #29, #110, #45 ), #233 ) ;
#217 = LOCAL_TIME ( 11, 4, 36.00000000000000000, #218 ) ;
#218 = COORDINATED_UNIVERSAL_TIME_OFFSET ( 1, 0, .AHEAD. ) ;
#219 = DIRECTION ( 'NONE',  ( 3.491481338843133355E-15, -9.031770143711729009E-17, 1.000000000000000000 ) ) ;
#220 = FACE_OUTER_BOUND ( 'NONE', #215, .T. ) ;
#221 = AXIS2_PLACEMENT_3D ( 'NONE', #240, #203, #202 ) ;
#222 = EDGE_LOOP ( 'NONE', ( #183 ) ) ;
#223 = DIRECTION ( 'NONE',  ( -3.153425691349006731E-31, -1.000000000000000000, -9.031770143711729009E-17 ) ) ;
#224 = CARTESIAN_POINT ( 'NONE',  ( 4.885231259955590439E-14, 1.999999999999990452, 13.99185842870425134 ) ) ;
#225 = FACE_BOUND ( 'NONE', #141, .T. ) ;
#226 = EDGE_CURVE ( 'NONE', #157, #157, #84, .T. ) ;
#227 = FACE_BOUND ( 'NONE', #145, .T. ) ;
#228 = DIRECTION ( 'NONE',  ( -3.491481338843133355E-15, 9.031770143711729009E-17, -1.000000000000000000 ) ) ;
#229 = VERTEX_POINT ( 'NONE', #170 ) ;
#230 = CC_DESIGN_SECURITY_CLASSIFICATION ( #36, ( #3 ) ) ;
#231 = AXIS2_PLACEMENT_3D ( 'NONE', #185, #18, #241 ) ;
#232 = EDGE_CURVE ( 'NONE', #229, #229, #177, .T. ) ;
#233 =( GEOMETRIC_REPRESENTATION_CONTEXT ( 3 ) GLOBAL_UNCERTAINTY_ASSIGNED_CONTEXT ( ( #35 ) ) GLOBAL_UNIT_ASSIGNED_CONTEXT ( ( #34, #236, #178 ) ) REPRESENTATION_CONTEXT ( 'NONE', 'WORKASPACE' ) );
#234 = AXIS2_PLACEMENT_3D ( 'NONE', #95, #57, #168 ) ;
#235 = APPROVAL_ROLE ( '' ) ;
#236 =( NAMED_UNIT ( * ) PLANE_ANGLE_UNIT ( ) SI_UNIT ( $, .RADIAN. ) );
#237 = APPROVAL ( #106, 'UNSPECIFIED' ) ;
#238 = LOCAL_TIME ( 11, 4, 36.00000000000000000, #169 ) ;
#239 = FACE_BOUND ( 'NONE', #222, .T. ) ;
#240 = CARTESIAN_POINT ( 'NONE',  ( 4.247228125801030084E-14, 6.817720216153632393E-15, 12.16454482671903925 ) ) ;
#241 = DIRECTION ( 'NONE',  ( -1.956829725011113362E-30, 1.000000000000000000, -5.604583084094295666E-16 ) ) ;
#242 = APPROVAL_DATE_TIME ( #90, #48 ) ;
#243 = EDGE_LOOP ( 'NONE', ( #204 ) ) ;
ENDSEC;
END-ISO-10303-21;
