ISO-10303-21;
HEADER;
FILE_DESCRIPTION (( 'STEP AP203' ),
    '1' );
FILE_NAME ('321513.step',
    '2021-11-26T10:04:36',
    ( '' ),
    ( '' ),
    'SwSTEP 2.0',
    'SolidWorks 2019',
    '' );
FILE_SCHEMA (( 'CONFIG_CONTROL_DESIGN' ));
ENDSEC;

DATA;
#1 = CIRCLE ( 'NONE', #51, 1.599999999999994982 ) ;
#2 = ORIENTED_EDGE ( 'NONE', *, *, #91, .T. ) ;
#3 = EDGE_LOOP ( 'NONE', ( #183 ) ) ;
#4 = DIRECTION ( 'NONE',  ( 0.0000000000000000000, 1.000000000000000000, 0.0000000000000000000 ) ) ;
#5 = DIRECTION ( 'NONE',  ( -3.491481338843133355E-15, 9.031770143711729009E-17, -1.000000000000000000 ) ) ;
#6 = CIRCLE ( 'NONE', #236, 2.819059892324148553 ) ;
#7 = FACE_BOUND ( 'NONE', #118, .T. ) ;
#8 = DIRECTION ( 'NONE',  ( 1.954829216543970420E-30, -1.000000000000000000, 5.598853400120658870E-16 ) ) ;
#9 = PRODUCT_RELATED_PRODUCT_CATEGORY ( 'detail', '', ( #113 ) ) ;
#10 = DIRECTION ( 'NONE',  ( -3.491481338843133355E-15, -5.598853400120657884E-16, -1.000000000000000000 ) ) ;
#11 = CIRCLE ( 'NONE', #124, 3.049999999999991385 ) ;
#12 = DIRECTION ( 'NONE',  ( 0.0000000000000000000, 1.000000000000000000, 0.0000000000000000000 ) ) ;
#13 = COORDINATED_UNIVERSAL_TIME_OFFSET ( 1, 0, .AHEAD. ) ;
#14 = PERSON_AND_ORGANIZATION_ROLE ( 'design_owner' ) ;
#15 = AXIS2_PLACEMENT_3D ( 'NONE', #41, #185, #97 ) ;
#16 = SECURITY_CLASSIFICATION_LEVEL ( 'unclassified' ) ;
#17 = ORIENTED_EDGE ( 'NONE', *, *, #33, .T. ) ;
#18 = ORIENTED_EDGE ( 'NONE', *, *, #191, .F. ) ;
#19 = EDGE_LOOP ( 'NONE', ( #2 ) ) ;
#20 = EDGE_LOOP ( 'NONE', ( #150 ) ) ;
#21 = COORDINATED_UNIVERSAL_TIME_OFFSET ( 1, 0, .AHEAD. ) ;
#22 = EDGE_LOOP ( 'NONE', ( #38 ) ) ;
#23 = DIRECTION ( 'NONE',  ( -3.153425691349006731E-31, -1.000000000000000000, -9.031770143711729009E-17 ) ) ;
#24 = CC_DESIGN_DATE_AND_TIME_ASSIGNMENT ( #52, #32, ( #157 ) ) ;
#25 = CARTESIAN_POINT ( 'NONE',  ( 0.0000000000000000000, 0.0000000000000000000, 0.0000000000000000000 ) ) ;
#26 = FACE_OUTER_BOUND ( 'NONE', #3, .T. ) ;
#27 = AXIS2_PLACEMENT_3D ( 'NONE', #42, #188, #8 ) ;
#28 =( GEOMETRIC_REPRESENTATION_CONTEXT ( 3 ) GLOBAL_UNCERTAINTY_ASSIGNED_CONTEXT ( ( #69 ) ) GLOBAL_UNIT_ASSIGNED_CONTEXT ( ( #107, #169, #34 ) ) REPRESENTATION_CONTEXT ( 'NONE', 'WORKASPACE' ) );
#29 = VERTEX_POINT ( 'NONE', #104 ) ;
#30 = PERSON_AND_ORGANIZATION ( #214, #139 ) ;
#31 = MANIFOLD_SOLID_BREP ( 'Corps-Déplacer/Copier1[1]', #225 ) ;
#32 = DATE_TIME_ROLE ( 'creation_date' ) ;
#33 = EDGE_CURVE ( 'NONE', #99, #99, #111, .T. ) ;
#34 =( NAMED_UNIT ( * ) SI_UNIT ( $, .STERADIAN. ) SOLID_ANGLE_UNIT ( ) );
#35 = APPLICATION_PROTOCOL_DEFINITION ( 'international standard', 'config_control_design', 1994, #221 ) ;
#36 = APPROVAL_DATE_TIME ( #201, #229 ) ;
#37 = EDGE_LOOP ( 'NONE', ( #226 ) ) ;
#38 = ORIENTED_EDGE ( 'NONE', *, *, #181, .F. ) ;
#39 = CARTESIAN_POINT ( 'NONE',  ( 4.250251837337311375E-14, 3.049999999999998490, 12.17320508075689389 ) ) ;
#40 = CC_DESIGN_PERSON_AND_ORGANIZATION_ASSIGNMENT ( #30, #147, ( #164 ) ) ;
#41 = CARTESIAN_POINT ( 'NONE',  ( 2.779219145719134403E-13, -7.189289034394536528E-15, 79.60000000000000853 ) ) ;
#42 = CARTESIAN_POINT ( 'NONE',  ( 5.510780640702545241E-30, 8.836951979167592819E-31, 1.578350306328283641E-15 ) ) ;
#43 = CIRCLE ( 'NONE', #125, 3.049999999999999822 ) ;
#44 = APPROVAL ( #219, 'UNSPECIFIED' ) ;
#45 = DIRECTION ( 'NONE',  ( 1.954829216543970420E-30, -1.000000000000000000, 5.598853400120657884E-16 ) ) ;
#46 = CYLINDRICAL_SURFACE ( 'NONE', #98, 3.049999999999994493 ) ;
#47 = CARTESIAN_POINT ( 'NONE',  ( 2.779219145719134403E-13, 1.999999999999988010, 79.60000000000000853 ) ) ;
#48 = COORDINATED_UNIVERSAL_TIME_OFFSET ( 1, 0, .AHEAD. ) ;
#49 = DATE_TIME_ROLE ( 'classification_date' ) ;
#50 = CC_DESIGN_PERSON_AND_ORGANIZATION_ASSIGNMENT ( #109, #182, ( #164 ) ) ;
#51 = AXIS2_PLACEMENT_3D ( 'NONE', #156, #186, #12 ) ;
#52 = DATE_AND_TIME ( #145, #142 ) ;
#53 = ADVANCED_FACE ( 'NONE', ( #204 ), #222, .T. ) ;
#54 = ORIENTED_EDGE ( 'NONE', *, *, #110, .F. ) ;
#55 = CARTESIAN_POINT ( 'NONE',  ( 1.396592535537259456E-15, 2.239541360048272719E-16, 0.4000000000000017431 ) ) ;
#56 = DIRECTION ( 'NONE',  ( -1.954829216543970420E-30, 1.000000000000000000, -5.598853400120657884E-16 ) ) ;
#57 = ADVANCED_FACE ( 'NONE', ( #133 ), #134, .T. ) ;
#58 = ORIENTED_EDGE ( 'NONE', *, *, #110, .T. ) ;
#59 = DIRECTION ( 'NONE',  ( -3.491481338843133355E-15, 9.031770143711729009E-17, -1.000000000000000000 ) ) ;
#60 = PERSON_AND_ORGANIZATION ( #214, #139 ) ;
#61 = CALENDAR_DATE ( 2021, 26, 11 ) ;
#62 = CLOSED_SHELL ( 'NONE', ( #211, #128, #106, #53 ) ) ;
#63 = DIRECTION ( 'NONE',  ( -3.491481338843133355E-15, 9.031770143711729009E-17, -1.000000000000000000 ) ) ;
#64 = FACE_OUTER_BOUND ( 'NONE', #114, .T. ) ;
#65 = CARTESIAN_POINT ( 'NONE',  ( 2.793185071074506684E-13, -7.225416114969383207E-15, 80.00000000000000000 ) ) ;
#66 = APPLICATION_PROTOCOL_DEFINITION ( 'international standard', 'config_control_design', 1994, #79 ) ;
#67 = AXIS2_PLACEMENT_3D ( 'NONE', #158, #63, #234 ) ;
#68 = APPROVAL_DATE_TIME ( #238, #44 ) ;
#69 = UNCERTAINTY_MEASURE_WITH_UNIT (LENGTH_MEASURE( 1.000000000000000082E-05 ), #107, 'distance_accuracy_value', 'NONE');
#70 = DIRECTION ( 'NONE',  ( 0.0000000000000000000, 0.0000000000000000000, 1.000000000000000000 ) ) ;
#71 = PERSON_AND_ORGANIZATION_ROLE ( 'creator' ) ;
#72 = APPROVAL_PERSON_ORGANIZATION ( #165, #233, #197 ) ;
#73 = DIRECTION ( 'NONE',  ( 1.000000000000000000, 0.0000000000000000000, 0.0000000000000000000 ) ) ;
#74 = ADVANCED_FACE ( 'NONE', ( #117, #82 ), #116, .T. ) ;
#75 = EDGE_LOOP ( 'NONE', ( #171 ) ) ;
#76 = LOCAL_TIME ( 11, 4, 36.00000000000000000, #21 ) ;
#77 = ORIENTED_EDGE ( 'NONE', *, *, #181, .T. ) ;
#78 = EDGE_LOOP ( 'NONE', ( #207 ) ) ;
#79 = APPLICATION_CONTEXT ( 'configuration controlled 3d designs of mechanical parts and assemblies' ) ;
#80 = CARTESIAN_POINT ( 'NONE',  ( 4.250251837337312006E-14, 6.815599065676180727E-15, 12.17320508075689567 ) ) ;
#81 = AXIS2_PLACEMENT_3D ( 'NONE', #210, #161, #84 ) ;
#82 = FACE_OUTER_BOUND ( 'NONE', #22, .T. ) ;
#83 = DIRECTION ( 'NONE',  ( -1.954829216543970420E-30, 1.000000000000000000, -5.598853400120657884E-16 ) ) ;
#84 = DIRECTION ( 'NONE',  ( 0.0000000000000000000, 1.000000000000000000, 0.0000000000000000000 ) ) ;
#85 = VERTEX_POINT ( 'NONE', #47 ) ;
#86 = APPROVAL_PERSON_ORGANIZATION ( #60, #229, #148 ) ;
#87 = DIRECTION ( 'NONE',  ( 0.0000000000000000000, 1.000000000000000000, 0.0000000000000000000 ) ) ;
#88 = AXIS2_PLACEMENT_3D ( 'NONE', #206, #59, #4 ) ;
#89 = CARTESIAN_POINT ( 'NONE',  ( 0.0000000000000000000, 0.0000000000000000000, 0.0000000000000000000 ) ) ;
#90 = APPROVAL_STATUS ( 'not_yet_approved' ) ;
#91 = EDGE_CURVE ( 'NONE', #175, #175, #11, .T. ) ;
#92 = COORDINATED_UNIVERSAL_TIME_OFFSET ( 1, 0, .AHEAD. ) ;
#93 = SHAPE_DEFINITION_REPRESENTATION ( #205, #224 ) ;
#94 = EDGE_CURVE ( 'NONE', #85, #85, #177, .T. ) ;
#95 = ORIENTED_EDGE ( 'NONE', *, *, #91, .F. ) ;
#96 = DIRECTION ( 'NONE',  ( -1.957502566426372067E-30, 1.000000000000000000, -5.687617954022321575E-16 ) ) ;
#97 = DIRECTION ( 'NONE',  ( 0.0000000000000000000, 1.000000000000000000, 0.0000000000000000000 ) ) ;
#98 = AXIS2_PLACEMENT_3D ( 'NONE', #25, #235, #83 ) ;
#99 = VERTEX_POINT ( 'NONE', #190 ) ;
#100 = ADVANCED_FACE ( 'NONE', ( #173, #155 ), #102, .T. ) ;
#101 = FACE_OUTER_BOUND ( 'NONE', #19, .T. ) ;
#102 = CONICAL_SURFACE ( 'NONE', #241, 1.999999999999995337, 0.7853981633974516097 ) ;
#103 = FACE_OUTER_BOUND ( 'NONE', #170, .T. ) ;
#104 = CARTESIAN_POINT ( 'NONE',  ( 0.0000000000000000000, 2.819059892324148553, 0.0000000000000000000 ) ) ;
#105 = DATE_AND_TIME ( #216, #227 ) ;
#106 = ADVANCED_FACE ( 'NONE', ( #103, #7 ), #135, .T. ) ;
#107 =( LENGTH_UNIT ( ) NAMED_UNIT ( * ) SI_UNIT ( .MILLI., .METRE. ) );
#108 = APPROVAL_PERSON_ORGANIZATION ( #200, #44, #130 ) ;
#109 = PERSON_AND_ORGANIZATION ( #214, #139 ) ;
#110 = EDGE_CURVE ( 'NONE', #162, #162, #193, .T. ) ;
#111 = CIRCLE ( 'NONE', #198, 3.049999999999998046 ) ;
#112 = DIRECTION ( 'NONE',  ( -3.491481338843133355E-15, 9.031770143711729009E-17, -1.000000000000000000 ) ) ;
#113 = PRODUCT ( '321513', '321513', '', ( #196 ) ) ;
#114 = EDGE_LOOP ( 'NONE', ( #54 ) ) ;
#115 = EDGE_LOOP ( 'NONE', ( #77 ) ) ;
#116 = CONICAL_SURFACE ( 'NONE', #88, 3.049999999999999822, 0.5235987755982932645 ) ;
#117 = FACE_BOUND ( 'NONE', #184, .T. ) ;
#118 = EDGE_LOOP ( 'NONE', ( #18 ) ) ;
#119 = CARTESIAN_POINT ( 'NONE',  ( 4.250251837337311375E-14, 6.815599065676180727E-15, 12.17320508075689389 ) ) ;
#120 = SECURITY_CLASSIFICATION ( '', '', #16 ) ;
#121 = DIRECTION ( 'NONE',  ( -3.491481338843133355E-15, 9.031770143711729009E-17, -1.000000000000000000 ) ) ;
#122 = FACE_OUTER_BOUND ( 'NONE', #75, .T. ) ;
#123 = CARTESIAN_POINT ( 'NONE',  ( 4.250251837337311375E-14, -1.099455902016600306E-15, 12.17320508075689389 ) ) ;
#124 = AXIS2_PLACEMENT_3D ( 'NONE', #80, #153, #208 ) ;
#125 = AXIS2_PLACEMENT_3D ( 'NONE', #123, #121, #140 ) ;
#126 = VERTEX_POINT ( 'NONE', #194 ) ;
#127 = AXIS2_PLACEMENT_3D ( 'NONE', #119, #179, #45 ) ;
#128 = ADVANCED_FACE ( 'NONE', ( #101, #212 ), #46, .T. ) ;
#129 = APPROVAL_DATE_TIME ( #239, #233 ) ;
#130 = APPROVAL_ROLE ( '' ) ;
#131 = CC_DESIGN_APPROVAL ( #229, ( #120 ) ) ;
#132 = EDGE_LOOP ( 'NONE', ( #95 ) ) ;
#133 = FACE_OUTER_BOUND ( 'NONE', #115, .T. ) ;
#134 = PLANE ( 'NONE',  #159 ) ;
#135 = CONICAL_SURFACE ( 'NONE', #27, 2.819059892324148553, 0.5235987755982969283 ) ;
#136 = CC_DESIGN_APPROVAL ( #233, ( #157 ) ) ;
#137 = DIRECTION ( 'NONE',  ( 3.153425691349006731E-31, 1.000000000000000000, 9.031770143711729009E-17 ) ) ;
#138 = DIRECTION ( 'NONE',  ( 3.491481338843133355E-15, -9.031770143711729009E-17, 1.000000000000000000 ) ) ;
#139 = ORGANIZATION ( 'UNSPECIFIED', 'UNSPECIFIED', '' ) ;
#140 = DIRECTION ( 'NONE',  ( 0.0000000000000000000, 1.000000000000000000, 0.0000000000000000000 ) ) ;
#141 = CARTESIAN_POINT ( 'NONE',  ( 4.250251837337311375E-14, 3.049999999999998490, 12.17320508075689389 ) ) ;
#142 = LOCAL_TIME ( 11, 4, 36.00000000000000000, #48 ) ;
#143 = PERSON_AND_ORGANIZATION ( #214, #139 ) ;
#144 = COORDINATED_UNIVERSAL_TIME_OFFSET ( 1, 0, .AHEAD. ) ;
#145 = CALENDAR_DATE ( 2021, 26, 11 ) ;
#146 = CC_DESIGN_PERSON_AND_ORGANIZATION_ASSIGNMENT ( #240, #71, ( #157 ) ) ;
#147 = PERSON_AND_ORGANIZATION_ROLE ( 'creator' ) ;
#148 = APPROVAL_ROLE ( '' ) ;
#149 = ADVANCED_FACE ( 'NONE', ( #26, #64 ), #231, .T. ) ;
#150 = ORIENTED_EDGE ( 'NONE', *, *, #191, .T. ) ;
#151 = EDGE_LOOP ( 'NONE', ( #228 ) ) ;
#152 = DIRECTION ( 'NONE',  ( -3.491481338843133355E-15, -5.598853400120657884E-16, -1.000000000000000000 ) ) ;
#153 = DIRECTION ( 'NONE',  ( -3.491481338843133355E-15, -5.598853400120657884E-16, -1.000000000000000000 ) ) ;
#154 = CC_DESIGN_PERSON_AND_ORGANIZATION_ASSIGNMENT ( #167, #14, ( #113 ) ) ;
#155 = FACE_OUTER_BOUND ( 'NONE', #151, .T. ) ;
#156 = CARTESIAN_POINT ( 'NONE',  ( 2.793185071074506684E-13, -7.225416114969383207E-15, 80.00000000000000000 ) ) ;
#157 = PRODUCT_DEFINITION ( 'UNKNOWN', '', #164, #243 ) ;
#158 = CARTESIAN_POINT ( 'NONE',  ( 0.0000000000000000000, 0.0000000000000000000, 0.0000000000000000000 ) ) ;
#159 = AXIS2_PLACEMENT_3D ( 'NONE', #39, #5, #137 ) ;
#160 = CARTESIAN_POINT ( 'NONE',  ( 4.885231259955590439E-14, 1.999999999999990452, 13.99185842870425134 ) ) ;
#161 = DIRECTION ( 'NONE',  ( -3.491481338843133355E-15, 9.031770143711729009E-17, -1.000000000000000000 ) ) ;
#162 = VERTEX_POINT ( 'NONE', #160 ) ;
#163 = AXIS2_PLACEMENT_3D ( 'NONE', #172, #223, #56 ) ;
#164 = PRODUCT_DEFINITION_FORMATION_WITH_SPECIFIED_SOURCE ( 'ANY', '', #113, .NOT_KNOWN. ) ;
#165 = PERSON_AND_ORGANIZATION ( #214, #139 ) ;
#166 = CALENDAR_DATE ( 2021, 26, 11 ) ;
#167 = PERSON_AND_ORGANIZATION ( #214, #139 ) ;
#168 = CALENDAR_DATE ( 2021, 26, 11 ) ;
#169 =( NAMED_UNIT ( * ) PLANE_ANGLE_UNIT ( ) SI_UNIT ( $, .RADIAN. ) );
#170 = EDGE_LOOP ( 'NONE', ( #17 ) ) ;
#171 = ORIENTED_EDGE ( 'NONE', *, *, #237, .F. ) ;
#172 = CARTESIAN_POINT ( 'NONE',  ( -2.755390320351272621E-30, 2.819059892324148553, -7.891751531641418204E-16 ) ) ;
#173 = FACE_BOUND ( 'NONE', #37, .T. ) ;
#174 = LOCAL_TIME ( 11, 4, 36.00000000000000000, #144 ) ;
#175 = VERTEX_POINT ( 'NONE', #141 ) ;
#176 = CARTESIAN_POINT ( 'NONE',  ( 5.510780640702545241E-30, 8.836951979167592819E-31, 1.578350306328283641E-15 ) ) ;
#177 = CIRCLE ( 'NONE', #15, 1.999999999999995337 ) ;
#178 = AXIS2_PLACEMENT_3D ( 'NONE', #65, #138, #23 ) ;
#179 = DIRECTION ( 'NONE',  ( 3.491481338843133355E-15, 5.598853400120657884E-16, 1.000000000000000000 ) ) ;
#180 = VERTEX_POINT ( 'NONE', #230 ) ;
#181 = EDGE_CURVE ( 'NONE', #126, #126, #43, .T. ) ;
#182 = PERSON_AND_ORGANIZATION_ROLE ( 'design_supplier' ) ;
#183 = ORIENTED_EDGE ( 'NONE', *, *, #94, .T. ) ;
#184 = EDGE_LOOP ( 'NONE', ( #58 ) ) ;
#185 = DIRECTION ( 'NONE',  ( -3.491481338843133355E-15, 9.031770143711729009E-17, -1.000000000000000000 ) ) ;
#186 = DIRECTION ( 'NONE',  ( -3.491481338843133355E-15, 9.031770143711729009E-17, -1.000000000000000000 ) ) ;
#187 = MANIFOLD_SOLID_BREP ( 'Corps-Déplacer/Copier1[2]', #62 ) ;
#188 = DIRECTION ( 'NONE',  ( 3.491481338843133355E-15, 5.598853400120657884E-16, 1.000000000000000000 ) ) ;
#189 = APPROVAL_STATUS ( 'not_yet_approved' ) ;
#190 = CARTESIAN_POINT ( 'NONE',  ( 1.396592535537253539E-15, 3.049999999999998490, 0.4000000000000000222 ) ) ;
#191 = EDGE_CURVE ( 'NONE', #29, #29, #6, .T. ) ;
#192 = PLANE ( 'NONE',  #127 ) ;
#193 = CIRCLE ( 'NONE', #81, 1.999999999999991784 ) ;
#194 = CARTESIAN_POINT ( 'NONE',  ( 4.250251837337311375E-14, 3.049999999999998490, 12.17320508075689389 ) ) ;
#195 = CC_DESIGN_PERSON_AND_ORGANIZATION_ASSIGNMENT ( #143, #217, ( #120 ) ) ;
#196 = MECHANICAL_CONTEXT ( 'NONE', #221, 'mechanical' ) ;
#197 = APPROVAL_ROLE ( '' ) ;
#198 = AXIS2_PLACEMENT_3D ( 'NONE', #55, #152, #96 ) ;
#199 = LOCAL_TIME ( 11, 4, 36.00000000000000000, #13 ) ;
#200 = PERSON_AND_ORGANIZATION ( #214, #139 ) ;
#201 = DATE_AND_TIME ( #61, #76 ) ;
#202 = CC_DESIGN_APPROVAL ( #44, ( #164 ) ) ;
#203 = CARTESIAN_POINT ( 'NONE',  ( 2.779219145719134403E-13, -7.189289034394536528E-15, 79.60000000000000853 ) ) ;
#204 = FACE_OUTER_BOUND ( 'NONE', #20, .T. ) ;
#205 = PRODUCT_DEFINITION_SHAPE ( 'NONE', 'NONE',  #157 ) ;
#206 = CARTESIAN_POINT ( 'NONE',  ( 4.250251837337311375E-14, -1.099455902016600306E-15, 12.17320508075689389 ) ) ;
#207 = ORIENTED_EDGE ( 'NONE', *, *, #33, .F. ) ;
#208 = DIRECTION ( 'NONE',  ( -2.020647810504646598E-30, 1.000000000000000000, -5.687617954022334394E-16 ) ) ;
#209 = FACE_OUTER_BOUND ( 'NONE', #132, .T. ) ;
#210 = CARTESIAN_POINT ( 'NONE',  ( 4.885231259955590439E-14, -1.263712492114123682E-15, 13.99185842870425134 ) ) ;
#211 = ADVANCED_FACE ( 'NONE', ( #209 ), #192, .T. ) ;
#212 = FACE_OUTER_BOUND ( 'NONE', #78, .T. ) ;
#213 = DIRECTION ( 'NONE',  ( -1.954829216543970420E-30, 1.000000000000000000, -5.598853400120658870E-16 ) ) ;
#214 = PERSON ( 'UNSPECIFIED', 'UNSPECIFIED', 'UNSPECIFIED', ('UNSPECIFIED'), ('UNSPECIFIED'), ('UNSPECIFIED') ) ;
#215 = AXIS2_PLACEMENT_3D ( 'NONE', #89, #70, #73 ) ;
#216 = CALENDAR_DATE ( 2021, 26, 11 ) ;
#217 = PERSON_AND_ORGANIZATION_ROLE ( 'classification_officer' ) ;
#218 = CC_DESIGN_SECURITY_CLASSIFICATION ( #120, ( #164 ) ) ;
#219 = APPROVAL_STATUS ( 'not_yet_approved' ) ;
#220 = CC_DESIGN_DATE_AND_TIME_ASSIGNMENT ( #105, #49, ( #120 ) ) ;
#221 = APPLICATION_CONTEXT ( 'configuration controlled 3d designs of mechanical parts and assemblies' ) ;
#222 = PLANE ( 'NONE',  #163 ) ;
#223 = DIRECTION ( 'NONE',  ( -3.491481338843133355E-15, -5.598853400120657884E-16, -1.000000000000000000 ) ) ;
#224 = ADVANCED_BREP_SHAPE_REPRESENTATION ( '321513', ( #31, #187, #215 ), #28 ) ;
#225 = CLOSED_SHELL ( 'NONE', ( #242, #100, #149, #74, #57 ) ) ;
#226 = ORIENTED_EDGE ( 'NONE', *, *, #237, .T. ) ;
#227 = LOCAL_TIME ( 11, 4, 36.00000000000000000, #92 ) ;
#228 = ORIENTED_EDGE ( 'NONE', *, *, #94, .F. ) ;
#229 = APPROVAL ( #189, 'UNSPECIFIED' ) ;
#230 = CARTESIAN_POINT ( 'NONE',  ( 2.793185071074506684E-13, 1.599999999999987876, 80.00000000000000000 ) ) ;
#231 = CYLINDRICAL_SURFACE ( 'NONE', #67, 1.999999999999993561 ) ;
#232 = PLANE ( 'NONE',  #178 ) ;
#233 = APPROVAL ( #90, 'UNSPECIFIED' ) ;
#234 = DIRECTION ( 'NONE',  ( 3.153425691349006731E-31, 1.000000000000000000, 9.031770143711729009E-17 ) ) ;
#235 = DIRECTION ( 'NONE',  ( -3.491481338843133355E-15, -5.598853400120657884E-16, -1.000000000000000000 ) ) ;
#236 = AXIS2_PLACEMENT_3D ( 'NONE', #176, #10, #213 ) ;
#237 = EDGE_CURVE ( 'NONE', #180, #180, #1, .T. ) ;
#238 = DATE_AND_TIME ( #168, #174 ) ;
#239 = DATE_AND_TIME ( #166, #199 ) ;
#240 = PERSON_AND_ORGANIZATION ( #214, #139 ) ;
#241 = AXIS2_PLACEMENT_3D ( 'NONE', #203, #112, #87 ) ;
#242 = ADVANCED_FACE ( 'NONE', ( #122 ), #232, .T. ) ;
#243 = DESIGN_CONTEXT ( 'detailed design', #79, 'design' ) ;
ENDSEC;
END-ISO-10303-21;
