ISO-10303-21;
HEADER;
FILE_DESCRIPTION (( 'STEP AP203' ),
    '1' );
FILE_NAME ('321512.step',
    '2021-11-26T10:04:35',
    ( '' ),
    ( '' ),
    'SwSTEP 2.0',
    'SolidWorks 2019',
    '' );
FILE_SCHEMA (( 'CONFIG_CONTROL_DESIGN' ));
ENDSEC;

DATA;
#1 = COORDINATED_UNIVERSAL_TIME_OFFSET ( 1, 0, .AHEAD. ) ;
#2 = ADVANCED_FACE ( 'NONE', ( #164 ), #219, .T. ) ;
#3 = DIRECTION ( 'NONE',  ( 0.0000000000000000000, 0.0000000000000000000, 1.000000000000000000 ) ) ;
#4 = DIRECTION ( 'NONE',  ( 1.000000000000000000, 0.0000000000000000000, 0.0000000000000000000 ) ) ;
#5 = AXIS2_PLACEMENT_3D ( 'NONE', #223, #132, #207 ) ;
#6 = PLANE ( 'NONE',  #170 ) ;
#7 = PRODUCT_DEFINITION_SHAPE ( 'NONE', 'NONE',  #209 ) ;
#8 = DIRECTION ( 'NONE',  ( 3.491481338843133355E-15, 5.593131862767830396E-16, 1.000000000000000000 ) ) ;
#9 = FACE_OUTER_BOUND ( 'NONE', #195, .T. ) ;
#10 = FACE_OUTER_BOUND ( 'NONE', #67, .T. ) ;
#11 = FACE_OUTER_BOUND ( 'NONE', #103, .T. ) ;
#12 = CARTESIAN_POINT ( 'NONE',  ( 0.0000000000000000000, 2.814059892324148660, 0.0000000000000000000 ) ) ;
#13 = ADVANCED_FACE ( 'NONE', ( #50 ), #6, .T. ) ;
#14 = VERTEX_POINT ( 'NONE', #12 ) ;
#15 =( NAMED_UNIT ( * ) PLANE_ANGLE_UNIT ( ) SI_UNIT ( $, .RADIAN. ) );
#16 = CARTESIAN_POINT ( 'NONE',  ( 2.793185071074506684E-13, 1.599999999999987876, 80.00000000000000000 ) ) ;
#17 = DATE_TIME_ROLE ( 'classification_date' ) ;
#18 = MECHANICAL_CONTEXT ( 'NONE', #25, 'mechanical' ) ;
#19 = SECURITY_CLASSIFICATION_LEVEL ( 'unclassified' ) ;
#20 = APPROVAL_STATUS ( 'not_yet_approved' ) ;
#21 = CC_DESIGN_DATE_AND_TIME_ASSIGNMENT ( #172, #99, ( #209 ) ) ;
#22 = APPROVAL_ROLE ( '' ) ;
#23 = ADVANCED_FACE ( 'NONE', ( #179, #10 ), #131, .T. ) ;
#24 = PRODUCT_DEFINITION_FORMATION_WITH_SPECIFIED_SOURCE ( 'ANY', '', #49, .NOT_KNOWN. ) ;
#25 = APPLICATION_CONTEXT ( 'configuration controlled 3d designs of mechanical parts and assemblies' ) ;
#26 = EDGE_LOOP ( 'NONE', ( #229 ) ) ;
#27 = CC_DESIGN_PERSON_AND_ORGANIZATION_ASSIGNMENT ( #174, #79, ( #111 ) ) ;
#28 = ORIENTED_EDGE ( 'NONE', *, *, #68, .F. ) ;
#29 = DIRECTION ( 'NONE',  ( 3.491481338843133355E-15, 5.593131862767830396E-16, 1.000000000000000000 ) ) ;
#30 = CIRCLE ( 'NONE', #171, 3.044999999999991935 ) ;
#31 = EDGE_LOOP ( 'NONE', ( #28 ) ) ;
#32 = CC_DESIGN_PERSON_AND_ORGANIZATION_ASSIGNMENT ( #228, #211, ( #24 ) ) ;
#33 = DIRECTION ( 'NONE',  ( 3.491481338843133355E-15, -9.031770143711729009E-17, 1.000000000000000000 ) ) ;
#34 = CARTESIAN_POINT ( 'NONE',  ( 1.396592535537253342E-15, 3.044999999999998597, 0.4000000000000000222 ) ) ;
#35 = ADVANCED_FACE ( 'NONE', ( #89, #9 ), #218, .T. ) ;
#36 = DIRECTION ( 'NONE',  ( 0.0000000000000000000, 1.000000000000000000, 0.0000000000000000000 ) ) ;
#37 = APPLICATION_CONTEXT ( 'configuration controlled 3d designs of mechanical parts and assemblies' ) ;
#38 = LOCAL_TIME ( 11, 4, 35.00000000000000000, #84 ) ;
#39 = COORDINATED_UNIVERSAL_TIME_OFFSET ( 1, 0, .AHEAD. ) ;
#40 = CALENDAR_DATE ( 2021, 26, 11 ) ;
#41 =( GEOMETRIC_REPRESENTATION_CONTEXT ( 3 ) GLOBAL_UNCERTAINTY_ASSIGNED_CONTEXT ( ( #163 ) ) GLOBAL_UNIT_ASSIGNED_CONTEXT ( ( #206, #15, #82 ) ) REPRESENTATION_CONTEXT ( 'NONE', 'WORKASPACE' ) );
#42 = COORDINATED_UNIVERSAL_TIME_OFFSET ( 1, 0, .AHEAD. ) ;
#43 = CALENDAR_DATE ( 2021, 26, 11 ) ;
#44 = CC_DESIGN_PERSON_AND_ORGANIZATION_ASSIGNMENT ( #155, #154, ( #49 ) ) ;
#45 = EDGE_LOOP ( 'NONE', ( #140 ) ) ;
#46 = ORIENTED_EDGE ( 'NONE', *, *, #114, .F. ) ;
#47 = CARTESIAN_POINT ( 'NONE',  ( 4.253275548873589510E-14, 6.813477915198736950E-15, 12.18186533479474143 ) ) ;
#48 = ORIENTED_EDGE ( 'NONE', *, *, #158, .T. ) ;
#49 = PRODUCT ( '321512', '321512', '', ( #18 ) ) ;
#50 = FACE_OUTER_BOUND ( 'NONE', #144, .T. ) ;
#51 = VERTEX_POINT ( 'NONE', #150 ) ;
#52 = CARTESIAN_POINT ( 'NONE',  ( 2.793185071074506684E-13, -7.225416114969383207E-15, 80.00000000000000000 ) ) ;
#53 = AXIS2_PLACEMENT_3D ( 'NONE', #184, #54, #36 ) ;
#54 = DIRECTION ( 'NONE',  ( -3.491481338843133355E-15, 9.031770143711729009E-17, -1.000000000000000000 ) ) ;
#55 = CARTESIAN_POINT ( 'NONE',  ( 4.885231259955590439E-14, 1.999999999999990452, 13.99185842870425134 ) ) ;
#56 = DIRECTION ( 'NONE',  ( -3.491481338843133355E-15, -5.593131862767830396E-16, -1.000000000000000000 ) ) ;
#57 = ADVANCED_FACE ( 'NONE', ( #216, #143 ), #239, .T. ) ;
#58 = PERSON_AND_ORGANIZATION ( #189, #193 ) ;
#59 = APPROVAL_DATE_TIME ( #118, #231 ) ;
#60 = CALENDAR_DATE ( 2021, 26, 11 ) ;
#61 = CLOSED_SHELL ( 'NONE', ( #168, #35, #23, #104, #13 ) ) ;
#62 = APPROVAL_STATUS ( 'not_yet_approved' ) ;
#63 = PERSON_AND_ORGANIZATION ( #189, #193 ) ;
#64 = ORIENTED_EDGE ( 'NONE', *, *, #68, .T. ) ;
#65 = EDGE_LOOP ( 'NONE', ( #202 ) ) ;
#66 = DIRECTION ( 'NONE',  ( 1.952831552454281194E-30, -1.000000000000000000, 5.593131862767830396E-16 ) ) ;
#67 = EDGE_LOOP ( 'NONE', ( #46 ) ) ;
#68 = EDGE_CURVE ( 'NONE', #220, #220, #30, .T. ) ;
#69 = LOCAL_TIME ( 11, 4, 35.00000000000000000, #1 ) ;
#70 = ORIENTED_EDGE ( 'NONE', *, *, #241, .F. ) ;
#71 = FACE_OUTER_BOUND ( 'NONE', #230, .T. ) ;
#72 = CC_DESIGN_PERSON_AND_ORGANIZATION_ASSIGNMENT ( #139, #119, ( #24 ) ) ;
#73 = CARTESIAN_POINT ( 'NONE',  ( 4.253275548873588879E-14, -1.100238076255160193E-15, 12.18186533479473965 ) ) ;
#74 = DIRECTION ( 'NONE',  ( -3.491481338843133355E-15, 9.031770143711729009E-17, -1.000000000000000000 ) ) ;
#75 = LOCAL_TIME ( 11, 4, 35.00000000000000000, #42 ) ;
#76 = DIRECTION ( 'NONE',  ( 0.0000000000000000000, 1.000000000000000000, 0.0000000000000000000 ) ) ;
#77 = CARTESIAN_POINT ( 'NONE',  ( 4.253275548873588879E-14, 3.044999999999998597, 12.18186533479473965 ) ) ;
#78 = ADVANCED_FACE ( 'NONE', ( #11, #162 ), #90, .T. ) ;
#79 = PERSON_AND_ORGANIZATION_ROLE ( 'classification_officer' ) ;
#80 = APPROVAL_DATE_TIME ( #100, #98 ) ;
#81 = APPROVAL_ROLE ( '' ) ;
#82 =( NAMED_UNIT ( * ) SI_UNIT ( $, .STERADIAN. ) SOLID_ANGLE_UNIT ( ) );
#83 = AXIS2_PLACEMENT_3D ( 'NONE', #113, #115, #167 ) ;
#84 = COORDINATED_UNIVERSAL_TIME_OFFSET ( 1, 0, .AHEAD. ) ;
#85 = DIRECTION ( 'NONE',  ( -3.491481338843133355E-15, 9.031770143711729009E-17, -1.000000000000000000 ) ) ;
#86 = ORIENTED_EDGE ( 'NONE', *, *, #158, .F. ) ;
#87 = AXIS2_PLACEMENT_3D ( 'NONE', #225, #3, #4 ) ;
#88 = CARTESIAN_POINT ( 'NONE',  ( 5.495384948226694835E-30, 8.803258465154985307E-31, 1.573940804749520635E-15 ) ) ;
#89 = FACE_BOUND ( 'NONE', #126, .T. ) ;
#90 = CYLINDRICAL_SURFACE ( 'NONE', #83, 3.044999999999994600 ) ;
#91 = VERTEX_POINT ( 'NONE', #238 ) ;
#92 = VERTEX_POINT ( 'NONE', #34 ) ;
#93 = VERTEX_POINT ( 'NONE', #55 ) ;
#94 = CIRCLE ( 'NONE', #141, 3.044999999999998153 ) ;
#95 = AXIS2_PLACEMENT_3D ( 'NONE', #152, #224, #76 ) ;
#96 = PRODUCT_RELATED_PRODUCT_CATEGORY ( 'detail', '', ( #49 ) ) ;
#97 = LOCAL_TIME ( 11, 4, 35.00000000000000000, #39 ) ;
#98 = APPROVAL ( #62, 'UNSPECIFIED' ) ;
#99 = DATE_TIME_ROLE ( 'creation_date' ) ;
#100 = DATE_AND_TIME ( #60, #69 ) ;
#101 = CLOSED_SHELL ( 'NONE', ( #2, #78, #57, #200 ) ) ;
#102 = CIRCLE ( 'NONE', #136, 2.814059892324148660 ) ;
#103 = EDGE_LOOP ( 'NONE', ( #64 ) ) ;
#104 = ADVANCED_FACE ( 'NONE', ( #186, #243 ), #116, .T. ) ;
#105 = DIRECTION ( 'NONE',  ( 3.153425691349006731E-31, 1.000000000000000000, 9.031770143711729009E-17 ) ) ;
#106 = APPROVAL ( #210, 'UNSPECIFIED' ) ;
#107 = AXIS2_PLACEMENT_3D ( 'NONE', #159, #142, #234 ) ;
#108 = ORIENTED_EDGE ( 'NONE', *, *, #114, .T. ) ;
#109 = CARTESIAN_POINT ( 'NONE',  ( 4.253275548873588248E-14, 3.044999999999998597, 12.18186533479473788 ) ) ;
#110 = CARTESIAN_POINT ( 'NONE',  ( 1.396592535537259259E-15, 2.237252745107141526E-16, 0.4000000000000016875 ) ) ;
#111 = SECURITY_CLASSIFICATION ( '', '', #19 ) ;
#112 = CARTESIAN_POINT ( 'NONE',  ( 5.495384948226694835E-30, 8.803258465154985307E-31, 1.573940804749520635E-15 ) ) ;
#113 = CARTESIAN_POINT ( 'NONE',  ( 0.0000000000000000000, 0.0000000000000000000, 0.0000000000000000000 ) ) ;
#114 = EDGE_CURVE ( 'NONE', #93, #93, #199, .T. ) ;
#115 = DIRECTION ( 'NONE',  ( -3.491481338843133355E-15, -5.593131862767830396E-16, -1.000000000000000000 ) ) ;
#116 = CONICAL_SURFACE ( 'NONE', #181, 3.044999999999999929, 0.5235987755982935976 ) ;
#117 = DATE_AND_TIME ( #191, #75 ) ;
#118 = DATE_AND_TIME ( #173, #97 ) ;
#119 = PERSON_AND_ORGANIZATION_ROLE ( 'creator' ) ;
#120 = APPROVAL_PERSON_ORGANIZATION ( #137, #106, #81 ) ;
#121 = SHAPE_DEFINITION_REPRESENTATION ( #7, #128 ) ;
#122 = DATE_AND_TIME ( #43, #149 ) ;
#123 = CIRCLE ( 'NONE', #204, 1.999999999999995337 ) ;
#124 = DIRECTION ( 'NONE',  ( 1.952831552454281194E-30, -1.000000000000000000, 5.593131862767830396E-16 ) ) ;
#125 = EDGE_LOOP ( 'NONE', ( #161 ) ) ;
#126 = EDGE_LOOP ( 'NONE', ( #215 ) ) ;
#127 = AXIS2_PLACEMENT_3D ( 'NONE', #232, #146, #130 ) ;
#128 = ADVANCED_BREP_SHAPE_REPRESENTATION ( '321512', ( #192, #194, #87 ), #41 ) ;
#129 = CIRCLE ( 'NONE', #5, 1.599999999999994982 ) ;
#130 = DIRECTION ( 'NONE',  ( 3.153425691349006731E-31, 1.000000000000000000, 9.031770143711729009E-17 ) ) ;
#131 = CYLINDRICAL_SURFACE ( 'NONE', #127, 1.999999999999993561 ) ;
#132 = DIRECTION ( 'NONE',  ( -3.491481338843133355E-15, 9.031770143711729009E-17, -1.000000000000000000 ) ) ;
#133 = DIRECTION ( 'NONE',  ( -3.491481338843133355E-15, -5.593131862767830396E-16, -1.000000000000000000 ) ) ;
#134 = VERTEX_POINT ( 'NONE', #16 ) ;
#135 = AXIS2_PLACEMENT_3D ( 'NONE', #180, #8, #124 ) ;
#136 = AXIS2_PLACEMENT_3D ( 'NONE', #112, #56, #166 ) ;
#137 = PERSON_AND_ORGANIZATION ( #189, #193 ) ;
#138 = AXIS2_PLACEMENT_3D ( 'NONE', #88, #29, #66 ) ;
#139 = PERSON_AND_ORGANIZATION ( #189, #193 ) ;
#140 = ORIENTED_EDGE ( 'NONE', *, *, #201, .F. ) ;
#141 = AXIS2_PLACEMENT_3D ( 'NONE', #110, #133, #185 ) ;
#142 = DIRECTION ( 'NONE',  ( -3.491481338843133355E-15, 9.031770143711729009E-17, -1.000000000000000000 ) ) ;
#143 = FACE_BOUND ( 'NONE', #182, .T. ) ;
#144 = EDGE_LOOP ( 'NONE', ( #233 ) ) ;
#145 = APPROVAL_PERSON_ORGANIZATION ( #58, #231, #190 ) ;
#146 = DIRECTION ( 'NONE',  ( -3.491481338843133355E-15, 9.031770143711729009E-17, -1.000000000000000000 ) ) ;
#147 = DIRECTION ( 'NONE',  ( 0.0000000000000000000, 1.000000000000000000, 0.0000000000000000000 ) ) ;
#148 = DIRECTION ( 'NONE',  ( -1.952831552454281194E-30, 1.000000000000000000, -5.593131862767830396E-16 ) ) ;
#149 = LOCAL_TIME ( 11, 4, 35.00000000000000000, #213 ) ;
#150 = CARTESIAN_POINT ( 'NONE',  ( 2.779219145719134403E-13, 1.999999999999988010, 79.60000000000000853 ) ) ;
#151 = CC_DESIGN_DATE_AND_TIME_ASSIGNMENT ( #122, #17, ( #111 ) ) ;
#152 = CARTESIAN_POINT ( 'NONE',  ( 4.885231259955590439E-14, -1.263712492114123682E-15, 13.99185842870425134 ) ) ;
#153 = APPLICATION_PROTOCOL_DEFINITION ( 'international standard', 'config_control_design', 1994, #25 ) ;
#154 = PERSON_AND_ORGANIZATION_ROLE ( 'design_owner' ) ;
#155 = PERSON_AND_ORGANIZATION ( #189, #193 ) ;
#156 = AXIS2_PLACEMENT_3D ( 'NONE', #52, #33, #222 ) ;
#157 = ORIENTED_EDGE ( 'NONE', *, *, #201, .T. ) ;
#158 = EDGE_CURVE ( 'NONE', #14, #14, #102, .T. ) ;
#159 = CARTESIAN_POINT ( 'NONE',  ( 2.779219145719134403E-13, -7.189289034394536528E-15, 79.60000000000000853 ) ) ;
#160 = CC_DESIGN_APPROVAL ( #231, ( #209 ) ) ;
#161 = ORIENTED_EDGE ( 'NONE', *, *, #214, .F. ) ;
#162 = FACE_OUTER_BOUND ( 'NONE', #45, .T. ) ;
#163 = UNCERTAINTY_MEASURE_WITH_UNIT (LENGTH_MEASURE( 1.000000000000000082E-05 ), #206, 'distance_accuracy_value', 'NONE');
#164 = FACE_OUTER_BOUND ( 'NONE', #31, .T. ) ;
#165 = CC_DESIGN_SECURITY_CLASSIFICATION ( #111, ( #24 ) ) ;
#166 = DIRECTION ( 'NONE',  ( -1.952831552454281194E-30, 1.000000000000000000, -5.593131862767830396E-16 ) ) ;
#167 = DIRECTION ( 'NONE',  ( -1.952831552454281194E-30, 1.000000000000000000, -5.593131862767830396E-16 ) ) ;
#168 = ADVANCED_FACE ( 'NONE', ( #236 ), #169, .T. ) ;
#169 = PLANE ( 'NONE',  #156 ) ;
#170 = AXIS2_PLACEMENT_3D ( 'NONE', #109, #85, #105 ) ;
#171 = AXIS2_PLACEMENT_3D ( 'NONE', #47, #183, #197 ) ;
#172 = DATE_AND_TIME ( #40, #38 ) ;
#173 = CALENDAR_DATE ( 2021, 26, 11 ) ;
#174 = PERSON_AND_ORGANIZATION ( #189, #193 ) ;
#175 = CC_DESIGN_PERSON_AND_ORGANIZATION_ASSIGNMENT ( #63, #212, ( #209 ) ) ;
#176 = APPLICATION_PROTOCOL_DEFINITION ( 'international standard', 'config_control_design', 1994, #37 ) ;
#177 = APPROVAL_PERSON_ORGANIZATION ( #227, #98, #22 ) ;
#178 = EDGE_LOOP ( 'NONE', ( #108 ) ) ;
#179 = FACE_OUTER_BOUND ( 'NONE', #26, .T. ) ;
#180 = CARTESIAN_POINT ( 'NONE',  ( 4.253275548873588248E-14, 6.813477915198735372E-15, 12.18186533479473788 ) ) ;
#181 = AXIS2_PLACEMENT_3D ( 'NONE', #73, #74, #203 ) ;
#182 = EDGE_LOOP ( 'NONE', ( #86 ) ) ;
#183 = DIRECTION ( 'NONE',  ( -3.491481338843133355E-15, -5.593131862767830396E-16, -1.000000000000000000 ) ) ;
#184 = CARTESIAN_POINT ( 'NONE',  ( 4.253275548873588879E-14, -1.100238076255160193E-15, 12.18186533479473965 ) ) ;
#185 = DIRECTION ( 'NONE',  ( -1.960716856354822581E-30, 1.000000000000000000, -5.518927314786643316E-16 ) ) ;
#186 = FACE_BOUND ( 'NONE', #178, .T. ) ;
#187 = CARTESIAN_POINT ( 'NONE',  ( 2.779219145719134403E-13, -7.189289034394536528E-15, 79.60000000000000853 ) ) ;
#188 = APPROVAL_DATE_TIME ( #117, #106 ) ;
#189 = PERSON ( 'UNSPECIFIED', 'UNSPECIFIED', 'UNSPECIFIED', ('UNSPECIFIED'), ('UNSPECIFIED'), ('UNSPECIFIED') ) ;
#190 = APPROVAL_ROLE ( '' ) ;
#191 = CALENDAR_DATE ( 2021, 26, 11 ) ;
#192 = MANIFOLD_SOLID_BREP ( 'Corps-Déplacer/Copier1[1]', #61 ) ;
#193 = ORGANIZATION ( 'UNSPECIFIED', 'UNSPECIFIED', '' ) ;
#194 = MANIFOLD_SOLID_BREP ( 'Corps-Déplacer/Copier1[2]', #101 ) ;
#195 = EDGE_LOOP ( 'NONE', ( #70 ) ) ;
#196 = EDGE_LOOP ( 'NONE', ( #157 ) ) ;
#197 = DIRECTION ( 'NONE',  ( -2.023965787204982114E-30, 1.000000000000000000, -5.696957228166868782E-16 ) ) ;
#198 = AXIS2_PLACEMENT_3D ( 'NONE', #205, #221, #148 ) ;
#199 = CIRCLE ( 'NONE', #95, 1.999999999999991784 ) ;
#200 = ADVANCED_FACE ( 'NONE', ( #71 ), #240, .T. ) ;
#201 = EDGE_CURVE ( 'NONE', #92, #92, #94, .T. ) ;
#202 = ORIENTED_EDGE ( 'NONE', *, *, #217, .F. ) ;
#203 = DIRECTION ( 'NONE',  ( 0.0000000000000000000, 1.000000000000000000, 0.0000000000000000000 ) ) ;
#204 = AXIS2_PLACEMENT_3D ( 'NONE', #187, #237, #147 ) ;
#205 = CARTESIAN_POINT ( 'NONE',  ( -2.747692474113347417E-30, 2.814059892324148660, -7.869704023747603173E-16 ) ) ;
#206 =( LENGTH_UNIT ( ) NAMED_UNIT ( * ) SI_UNIT ( .MILLI., .METRE. ) );
#207 = DIRECTION ( 'NONE',  ( 0.0000000000000000000, 1.000000000000000000, 0.0000000000000000000 ) ) ;
#208 = CC_DESIGN_APPROVAL ( #98, ( #24 ) ) ;
#209 = PRODUCT_DEFINITION ( 'UNKNOWN', '', #24, #242 ) ;
#210 = APPROVAL_STATUS ( 'not_yet_approved' ) ;
#211 = PERSON_AND_ORGANIZATION_ROLE ( 'design_supplier' ) ;
#212 = PERSON_AND_ORGANIZATION_ROLE ( 'creator' ) ;
#213 = COORDINATED_UNIVERSAL_TIME_OFFSET ( 1, 0, .AHEAD. ) ;
#214 = EDGE_CURVE ( 'NONE', #91, #91, #226, .T. ) ;
#215 = ORIENTED_EDGE ( 'NONE', *, *, #217, .T. ) ;
#216 = FACE_OUTER_BOUND ( 'NONE', #196, .T. ) ;
#217 = EDGE_CURVE ( 'NONE', #134, #134, #129, .T. ) ;
#218 = CONICAL_SURFACE ( 'NONE', #107, 1.999999999999995337, 0.7853981633974516097 ) ;
#219 = PLANE ( 'NONE',  #135 ) ;
#220 = VERTEX_POINT ( 'NONE', #77 ) ;
#221 = DIRECTION ( 'NONE',  ( -3.491481338843133355E-15, -5.593131862767830396E-16, -1.000000000000000000 ) ) ;
#222 = DIRECTION ( 'NONE',  ( -3.153425691349006731E-31, -1.000000000000000000, -9.031770143711729009E-17 ) ) ;
#223 = CARTESIAN_POINT ( 'NONE',  ( 2.793185071074506684E-13, -7.225416114969383207E-15, 80.00000000000000000 ) ) ;
#224 = DIRECTION ( 'NONE',  ( -3.491481338843133355E-15, 9.031770143711729009E-17, -1.000000000000000000 ) ) ;
#225 = CARTESIAN_POINT ( 'NONE',  ( 0.0000000000000000000, 0.0000000000000000000, 0.0000000000000000000 ) ) ;
#226 = CIRCLE ( 'NONE', #53, 3.044999999999999929 ) ;
#227 = PERSON_AND_ORGANIZATION ( #189, #193 ) ;
#228 = PERSON_AND_ORGANIZATION ( #189, #193 ) ;
#229 = ORIENTED_EDGE ( 'NONE', *, *, #241, .T. ) ;
#230 = EDGE_LOOP ( 'NONE', ( #48 ) ) ;
#231 = APPROVAL ( #20, 'UNSPECIFIED' ) ;
#232 = CARTESIAN_POINT ( 'NONE',  ( 0.0000000000000000000, 0.0000000000000000000, 0.0000000000000000000 ) ) ;
#233 = ORIENTED_EDGE ( 'NONE', *, *, #214, .T. ) ;
#234 = DIRECTION ( 'NONE',  ( 0.0000000000000000000, 1.000000000000000000, 0.0000000000000000000 ) ) ;
#235 = CC_DESIGN_APPROVAL ( #106, ( #111 ) ) ;
#236 = FACE_OUTER_BOUND ( 'NONE', #65, .T. ) ;
#237 = DIRECTION ( 'NONE',  ( -3.491481338843133355E-15, 9.031770143711729009E-17, -1.000000000000000000 ) ) ;
#238 = CARTESIAN_POINT ( 'NONE',  ( 4.253275548873588879E-14, 3.044999999999998597, 12.18186533479473965 ) ) ;
#239 = CONICAL_SURFACE ( 'NONE', #138, 2.814059892324148660, 0.5235987755982969283 ) ;
#240 = PLANE ( 'NONE',  #198 ) ;
#241 = EDGE_CURVE ( 'NONE', #51, #51, #123, .T. ) ;
#242 = DESIGN_CONTEXT ( 'detailed design', #37, 'design' ) ;
#243 = FACE_OUTER_BOUND ( 'NONE', #125, .T. ) ;
ENDSEC;
END-ISO-10303-21;
