ISO-10303-21;
HEADER;
FILE_DESCRIPTION (( 'STEP AP203' ),
    '1' );
FILE_NAME ('321511.step',
    '2021-11-26T10:04:34',
    ( '' ),
    ( '' ),
    'SwSTEP 2.0',
    'SolidWorks 2019',
    '' );
FILE_SCHEMA (( 'CONFIG_CONTROL_DESIGN' ));
ENDSEC;

DATA;
#1 = FACE_OUTER_BOUND ( 'NONE', #125, .T. ) ;
#2 = AXIS2_PLACEMENT_3D ( 'NONE', #167, #205, #6 ) ;
#3 = DIRECTION ( 'NONE',  ( 0.0000000000000000000, 1.000000000000000000, 0.0000000000000000000 ) ) ;
#4 = AXIS2_PLACEMENT_3D ( 'NONE', #42, #224, #45 ) ;
#5 = APPROVAL_ROLE ( '' ) ;
#6 = DIRECTION ( 'NONE',  ( 3.153425691349006731E-31, 1.000000000000000000, 9.031770143711729009E-17 ) ) ;
#7 = PERSON_AND_ORGANIZATION_ROLE ( 'design_supplier' ) ;
#8 = FACE_BOUND ( 'NONE', #31, .T. ) ;
#9 = EDGE_LOOP ( 'NONE', ( #128 ) ) ;
#10 = PRODUCT ( '321511', '321511', '', ( #243 ) ) ;
#11 = ORIENTED_EDGE ( 'NONE', *, *, #194, .T. ) ;
#12 = CARTESIAN_POINT ( 'NONE',  ( -2.740008602694898492E-30, 2.809059892324149210, -7.847696541327562907E-16 ) ) ;
#13 = PERSON_AND_ORGANIZATION_ROLE ( 'creator' ) ;
#14 = APPROVAL_ROLE ( '' ) ;
#15 = EDGE_LOOP ( 'NONE', ( #11 ) ) ;
#16 = PERSON_AND_ORGANIZATION ( #33, #180 ) ;
#17 = DIRECTION ( 'NONE',  ( 0.0000000000000000000, 1.000000000000000000, 0.0000000000000000000 ) ) ;
#18 = CARTESIAN_POINT ( 'NONE',  ( 4.256299260409866384E-14, 3.039999999999998703, 12.19052558883258186 ) ) ;
#19 = LOCAL_TIME ( 11, 4, 34.00000000000000000, #206 ) ;
#20 = CC_DESIGN_DATE_AND_TIME_ASSIGNMENT ( #58, #104, ( #186 ) ) ;
#21 = VERTEX_POINT ( 'NONE', #95 ) ;
#22 = CARTESIAN_POINT ( 'NONE',  ( 2.779219145719134403E-13, 1.999999999999988010, 79.60000000000000853 ) ) ;
#23 = CARTESIAN_POINT ( 'NONE',  ( 4.256299260409867015E-14, 6.811356764721280550E-15, 12.19052558883258364 ) ) ;
#24 = AXIS2_PLACEMENT_3D ( 'NONE', #59, #47, #69 ) ;
#25 = UNCERTAINTY_MEASURE_WITH_UNIT (LENGTH_MEASURE( 1.000000000000000082E-05 ), #90, 'distance_accuracy_value', 'NONE');
#26 = ADVANCED_FACE ( 'NONE', ( #105, #170 ), #210, .T. ) ;
#27 = APPLICATION_CONTEXT ( 'configuration controlled 3d designs of mechanical parts and assemblies' ) ;
#28 = DIRECTION ( 'NONE',  ( -1.950836726680028876E-30, 1.000000000000000000, -5.587418454673506312E-16 ) ) ;
#29 = CLOSED_SHELL ( 'NONE', ( #64, #88, #26, #164, #159 ) ) ;
#30 = CIRCLE ( 'NONE', #115, 3.039999999999992042 ) ;
#31 = EDGE_LOOP ( 'NONE', ( #211 ) ) ;
#32 = APPROVAL_STATUS ( 'not_yet_approved' ) ;
#33 = PERSON ( 'UNSPECIFIED', 'UNSPECIFIED', 'UNSPECIFIED', ('UNSPECIFIED'), ('UNSPECIFIED'), ('UNSPECIFIED') ) ;
#34 = EDGE_LOOP ( 'NONE', ( #175 ) ) ;
#35 = CARTESIAN_POINT ( 'NONE',  ( 5.480017205389796984E-30, 8.769672896338215109E-31, 1.569539308265512581E-15 ) ) ;
#36 = CC_DESIGN_PERSON_AND_ORGANIZATION_ASSIGNMENT ( #73, #13, ( #82 ) ) ;
#37 = PERSON_AND_ORGANIZATION ( #33, #180 ) ;
#38 = LOCAL_TIME ( 11, 4, 34.00000000000000000, #218 ) ;
#39 = ADVANCED_FACE ( 'NONE', ( #55 ), #178, .T. ) ;
#40 = CC_DESIGN_PERSON_AND_ORGANIZATION_ASSIGNMENT ( #209, #49, ( #121 ) ) ;
#41 = CC_DESIGN_APPROVAL ( #63, ( #186 ) ) ;
#42 = CARTESIAN_POINT ( 'NONE',  ( 2.793185071074506684E-13, -7.225416114969383207E-15, 80.00000000000000000 ) ) ;
#43 = APPLICATION_PROTOCOL_DEFINITION ( 'international standard', 'config_control_design', 1994, #239 ) ;
#44 = PERSON_AND_ORGANIZATION ( #33, #180 ) ;
#45 = DIRECTION ( 'NONE',  ( 0.0000000000000000000, 1.000000000000000000, 0.0000000000000000000 ) ) ;
#46 =( NAMED_UNIT ( * ) SI_UNIT ( $, .STERADIAN. ) SOLID_ANGLE_UNIT ( ) );
#47 = DIRECTION ( 'NONE',  ( -3.491481338843133355E-15, 9.031770143711729009E-17, -1.000000000000000000 ) ) ;
#48 = ORIENTED_EDGE ( 'NONE', *, *, #51, .F. ) ;
#49 = PERSON_AND_ORGANIZATION_ROLE ( 'classification_officer' ) ;
#50 = ORIENTED_EDGE ( 'NONE', *, *, #208, .T. ) ;
#51 = EDGE_CURVE ( 'NONE', #233, #233, #162, .T. ) ;
#52 = APPROVAL_ROLE ( '' ) ;
#53 = DIRECTION ( 'NONE',  ( 3.153425691349006731E-31, 1.000000000000000000, 9.031770143711729009E-17 ) ) ;
#54 = CARTESIAN_POINT ( 'NONE',  ( 1.396592535537253342E-15, 3.039999999999998703, 0.4000000000000000222 ) ) ;
#55 = FACE_OUTER_BOUND ( 'NONE', #122, .T. ) ;
#56 = CC_DESIGN_PERSON_AND_ORGANIZATION_ASSIGNMENT ( #37, #92, ( #10 ) ) ;
#57 = CARTESIAN_POINT ( 'NONE',  ( 4.256299260409866384E-14, 3.039999999999998703, 12.19052558883258186 ) ) ;
#58 = DATE_AND_TIME ( #87, #174 ) ;
#59 = CARTESIAN_POINT ( 'NONE',  ( 4.256299260409866384E-14, -1.101020250493719490E-15, 12.19052558883258186 ) ) ;
#60 = AXIS2_PLACEMENT_3D ( 'NONE', #160, #237, #78 ) ;
#61 = CARTESIAN_POINT ( 'NONE',  ( 2.793185071074506684E-13, -7.225416114969383207E-15, 80.00000000000000000 ) ) ;
#62 = CARTESIAN_POINT ( 'NONE',  ( 2.779219145719134403E-13, -7.189289034394536528E-15, 79.60000000000000853 ) ) ;
#63 = APPROVAL ( #230, 'UNSPECIFIED' ) ;
#64 = ADVANCED_FACE ( 'NONE', ( #150 ), #79, .T. ) ;
#65 = AXIS2_PLACEMENT_3D ( 'NONE', #81, #111, #242 ) ;
#66 = CONICAL_SURFACE ( 'NONE', #165, 2.809059892324149210, 0.5235987755982969283 ) ;
#67 = SHAPE_DEFINITION_REPRESENTATION ( #144, #196 ) ;
#68 = CARTESIAN_POINT ( 'NONE',  ( 2.779219145719134403E-13, -7.189289034394536528E-15, 79.60000000000000853 ) ) ;
#69 = DIRECTION ( 'NONE',  ( 0.0000000000000000000, 1.000000000000000000, 0.0000000000000000000 ) ) ;
#70 = FACE_OUTER_BOUND ( 'NONE', #9, .T. ) ;
#71 = LOCAL_TIME ( 11, 4, 34.00000000000000000, #142 ) ;
#72 = DATE_TIME_ROLE ( 'classification_date' ) ;
#73 = PERSON_AND_ORGANIZATION ( #33, #180 ) ;
#74 = COORDINATED_UNIVERSAL_TIME_OFFSET ( 1, 0, .AHEAD. ) ;
#75 = EDGE_LOOP ( 'NONE', ( #143 ) ) ;
#76 = ORIENTED_EDGE ( 'NONE', *, *, #129, .F. ) ;
#77 = CC_DESIGN_APPROVAL ( #200, ( #121 ) ) ;
#78 = DIRECTION ( 'NONE',  ( 0.0000000000000000000, 1.000000000000000000, 0.0000000000000000000 ) ) ;
#79 = PLANE ( 'NONE',  #126 ) ;
#80 = FACE_OUTER_BOUND ( 'NONE', #173, .T. ) ;
#81 = CARTESIAN_POINT ( 'NONE',  ( 1.396592535537259259E-15, 2.234967381869412385E-16, 0.4000000000000016875 ) ) ;
#82 = PRODUCT_DEFINITION_FORMATION_WITH_SPECIFIED_SOURCE ( 'ANY', '', #10, .NOT_KNOWN. ) ;
#83 = DIRECTION ( 'NONE',  ( 3.491481338843133355E-15, -9.031770143711729009E-17, 1.000000000000000000 ) ) ;
#84 = DIRECTION ( 'NONE',  ( -3.491481338843133355E-15, 9.031770143711729009E-17, -1.000000000000000000 ) ) ;
#85 = DIRECTION ( 'NONE',  ( -3.491481338843133355E-15, 9.031770143711729009E-17, -1.000000000000000000 ) ) ;
#86 = PLANE ( 'NONE',  #183 ) ;
#87 = CALENDAR_DATE ( 2021, 26, 11 ) ;
#88 = ADVANCED_FACE ( 'NONE', ( #94, #177 ), #234, .T. ) ;
#89 = CC_DESIGN_PERSON_AND_ORGANIZATION_ASSIGNMENT ( #44, #7, ( #82 ) ) ;
#90 =( LENGTH_UNIT ( ) NAMED_UNIT ( * ) SI_UNIT ( .MILLI., .METRE. ) );
#91 = ORIENTED_EDGE ( 'NONE', *, *, #208, .F. ) ;
#92 = PERSON_AND_ORGANIZATION_ROLE ( 'design_owner' ) ;
#93 = AXIS2_PLACEMENT_3D ( 'NONE', #135, #199, #28 ) ;
#94 = FACE_BOUND ( 'NONE', #34, .T. ) ;
#95 = CARTESIAN_POINT ( 'NONE',  ( 2.793185071074506684E-13, 1.599999999999987876, 80.00000000000000000 ) ) ;
#96 = DIRECTION ( 'NONE',  ( 3.491481338843133355E-15, 5.587418454673507298E-16, 1.000000000000000000 ) ) ;
#97 = CC_DESIGN_APPROVAL ( #158, ( #82 ) ) ;
#98 = AXIS2_PLACEMENT_3D ( 'NONE', #152, #85, #140 ) ;
#99 = EDGE_CURVE ( 'NONE', #235, #235, #217, .T. ) ;
#100 = CALENDAR_DATE ( 2021, 26, 11 ) ;
#101 = FACE_OUTER_BOUND ( 'NONE', #15, .T. ) ;
#102 = CONICAL_SURFACE ( 'NONE', #60, 3.040000000000000036, 0.5235987755982933756 ) ;
#103 = ORIENTED_EDGE ( 'NONE', *, *, #137, .T. ) ;
#104 = DATE_TIME_ROLE ( 'creation_date' ) ;
#105 = FACE_OUTER_BOUND ( 'NONE', #141, .T. ) ;
#106 = CARTESIAN_POINT ( 'NONE',  ( 5.480017205389796984E-30, 8.769672896338215109E-31, 1.569539308265512581E-15 ) ) ;
#107 = CC_DESIGN_SECURITY_CLASSIFICATION ( #121, ( #82 ) ) ;
#108 = APPLICATION_PROTOCOL_DEFINITION ( 'international standard', 'config_control_design', 1994, #27 ) ;
#109 = DIRECTION ( 'NONE',  ( -1.950836726680028876E-30, 1.000000000000000000, -5.587418454673507298E-16 ) ) ;
#110 = DIRECTION ( 'NONE',  ( -3.491481338843133355E-15, -5.587418454673507298E-16, -1.000000000000000000 ) ) ;
#111 = DIRECTION ( 'NONE',  ( -3.491481338843133355E-15, -5.587418454673507298E-16, -1.000000000000000000 ) ) ;
#112 = VERTEX_POINT ( 'NONE', #18 ) ;
#113 = CIRCLE ( 'NONE', #4, 1.599999999999994982 ) ;
#114 = DIRECTION ( 'NONE',  ( -3.491481338843133355E-15, 9.031770143711729009E-17, -1.000000000000000000 ) ) ;
#115 = AXIS2_PLACEMENT_3D ( 'NONE', #241, #179, #182 ) ;
#116 = PRODUCT_RELATED_PRODUCT_CATEGORY ( 'detail', '', ( #10 ) ) ;
#117 = ADVANCED_FACE ( 'NONE', ( #188, #1 ), #163, .T. ) ;
#118 = PLANE ( 'NONE',  #2 ) ;
#119 = DATE_AND_TIME ( #100, #38 ) ;
#120 = DATE_AND_TIME ( #184, #19 ) ;
#121 = SECURITY_CLASSIFICATION ( '', '', #169 ) ;
#122 = EDGE_LOOP ( 'NONE', ( #91 ) ) ;
#123 = CALENDAR_DATE ( 2021, 26, 11 ) ;
#124 = CARTESIAN_POINT ( 'NONE',  ( 0.0000000000000000000, 0.0000000000000000000, 0.0000000000000000000 ) ) ;
#125 = EDGE_LOOP ( 'NONE', ( #48 ) ) ;
#126 = AXIS2_PLACEMENT_3D ( 'NONE', #61, #83, #219 ) ;
#127 = APPROVAL_DATE_TIME ( #119, #63 ) ;
#128 = ORIENTED_EDGE ( 'NONE', *, *, #99, .F. ) ;
#129 = EDGE_CURVE ( 'NONE', #21, #21, #113, .T. ) ;
#130 = VERTEX_POINT ( 'NONE', #22 ) ;
#131 = CIRCLE ( 'NONE', #98, 1.999999999999991784 ) ;
#132 = CARTESIAN_POINT ( 'NONE',  ( 0.0000000000000000000, 0.0000000000000000000, 0.0000000000000000000 ) ) ;
#133 = CLOSED_SHELL ( 'NONE', ( #39, #117, #172, #238 ) ) ;
#134 = CIRCLE ( 'NONE', #153, 1.999999999999995337 ) ;
#135 = CARTESIAN_POINT ( 'NONE',  ( 0.0000000000000000000, 0.0000000000000000000, 0.0000000000000000000 ) ) ;
#136 = MANIFOLD_SOLID_BREP ( 'Corps-Déplacer/Copier1[2]', #133 ) ;
#137 = EDGE_CURVE ( 'NONE', #130, #130, #134, .T. ) ;
#138 = EDGE_CURVE ( 'NONE', #176, #176, #131, .T. ) ;
#139 = CIRCLE ( 'NONE', #197, 2.809059892324149210 ) ;
#140 = DIRECTION ( 'NONE',  ( 0.0000000000000000000, 1.000000000000000000, 0.0000000000000000000 ) ) ;
#141 = EDGE_LOOP ( 'NONE', ( #103 ) ) ;
#142 = COORDINATED_UNIVERSAL_TIME_OFFSET ( 1, 0, .AHEAD. ) ;
#143 = ORIENTED_EDGE ( 'NONE', *, *, #137, .F. ) ;
#144 = PRODUCT_DEFINITION_SHAPE ( 'NONE', 'NONE',  #186 ) ;
#145 = ORIENTED_EDGE ( 'NONE', *, *, #138, .F. ) ;
#146 = APPROVAL_PERSON_ORGANIZATION ( #16, #63, #14 ) ;
#147 = FACE_BOUND ( 'NONE', #154, .T. ) ;
#148 = DIRECTION ( 'NONE',  ( 0.0000000000000000000, 0.0000000000000000000, 1.000000000000000000 ) ) ;
#149 = APPROVAL_PERSON_ORGANIZATION ( #193, #158, #5 ) ;
#150 = FACE_OUTER_BOUND ( 'NONE', #192, .T. ) ;
#151 =( GEOMETRIC_REPRESENTATION_CONTEXT ( 3 ) GLOBAL_UNCERTAINTY_ASSIGNED_CONTEXT ( ( #25 ) ) GLOBAL_UNIT_ASSIGNED_CONTEXT ( ( #90, #228, #46 ) ) REPRESENTATION_CONTEXT ( 'NONE', 'WORKASPACE' ) );
#152 = CARTESIAN_POINT ( 'NONE',  ( 4.885231259955590439E-14, -1.263712492114123682E-15, 13.99185842870425134 ) ) ;
#153 = AXIS2_PLACEMENT_3D ( 'NONE', #68, #84, #3 ) ;
#154 = EDGE_LOOP ( 'NONE', ( #190 ) ) ;
#155 = PERSON_AND_ORGANIZATION ( #33, #180 ) ;
#156 = VERTEX_POINT ( 'NONE', #227 ) ;
#157 = CARTESIAN_POINT ( 'NONE',  ( 4.885231259955590439E-14, 1.999999999999990452, 13.99185842870425134 ) ) ;
#158 = APPROVAL ( #214, 'UNSPECIFIED' ) ;
#159 = ADVANCED_FACE ( 'NONE', ( #222 ), #118, .T. ) ;
#160 = CARTESIAN_POINT ( 'NONE',  ( 4.256299260409866384E-14, -1.101020250493719490E-15, 12.19052558883258186 ) ) ;
#161 = DIRECTION ( 'NONE',  ( 1.950836726680028876E-30, -1.000000000000000000, 5.587418454673507298E-16 ) ) ;
#162 = CIRCLE ( 'NONE', #65, 3.039999999999998259 ) ;
#163 = CYLINDRICAL_SURFACE ( 'NONE', #93, 3.039999999999995151 ) ;
#164 = ADVANCED_FACE ( 'NONE', ( #8, #70 ), #102, .T. ) ;
#165 = AXIS2_PLACEMENT_3D ( 'NONE', #106, #195, #213 ) ;
#166 = DIRECTION ( 'NONE',  ( 1.000000000000000000, 0.0000000000000000000, 0.0000000000000000000 ) ) ;
#167 = CARTESIAN_POINT ( 'NONE',  ( 4.256299260409867015E-14, 3.039999999999998703, 12.19052558883258364 ) ) ;
#168 = EDGE_LOOP ( 'NONE', ( #229 ) ) ;
#169 = SECURITY_CLASSIFICATION_LEVEL ( 'unclassified' ) ;
#170 = FACE_OUTER_BOUND ( 'NONE', #185, .T. ) ;
#171 = DATE_AND_TIME ( #123, #71 ) ;
#172 = ADVANCED_FACE ( 'NONE', ( #80, #147 ), #66, .T. ) ;
#173 = EDGE_LOOP ( 'NONE', ( #226 ) ) ;
#174 = LOCAL_TIME ( 11, 4, 34.00000000000000000, #74 ) ;
#175 = ORIENTED_EDGE ( 'NONE', *, *, #129, .T. ) ;
#176 = VERTEX_POINT ( 'NONE', #157 ) ;
#177 = FACE_OUTER_BOUND ( 'NONE', #75, .T. ) ;
#178 = PLANE ( 'NONE',  #201 ) ;
#179 = DIRECTION ( 'NONE',  ( -3.491481338843133355E-15, -5.587418454673507298E-16, -1.000000000000000000 ) ) ;
#180 = ORGANIZATION ( 'UNSPECIFIED', 'UNSPECIFIED', '' ) ;
#181 = APPROVAL_DATE_TIME ( #232, #158 ) ;
#182 = DIRECTION ( 'NONE',  ( -2.027294678302358950E-30, 1.000000000000000000, -5.706327223607933332E-16 ) ) ;
#183 = AXIS2_PLACEMENT_3D ( 'NONE', #12, #231, #109 ) ;
#184 = CALENDAR_DATE ( 2021, 26, 11 ) ;
#185 = EDGE_LOOP ( 'NONE', ( #145 ) ) ;
#186 = PRODUCT_DEFINITION ( 'UNKNOWN', '', #82, #236 ) ;
#187 = CC_DESIGN_DATE_AND_TIME_ASSIGNMENT ( #171, #72, ( #121 ) ) ;
#188 = FACE_OUTER_BOUND ( 'NONE', #216, .T. ) ;
#189 = DIRECTION ( 'NONE',  ( -3.491481338843133355E-15, 9.031770143711729009E-17, -1.000000000000000000 ) ) ;
#190 = ORIENTED_EDGE ( 'NONE', *, *, #194, .F. ) ;
#191 = AXIS2_PLACEMENT_3D ( 'NONE', #132, #148, #166 ) ;
#192 = EDGE_LOOP ( 'NONE', ( #76 ) ) ;
#193 = PERSON_AND_ORGANIZATION ( #33, #180 ) ;
#194 = EDGE_CURVE ( 'NONE', #156, #156, #139, .T. ) ;
#195 = DIRECTION ( 'NONE',  ( 3.491481338843133355E-15, 5.587418454673507298E-16, 1.000000000000000000 ) ) ;
#196 = ADVANCED_BREP_SHAPE_REPRESENTATION ( '321511', ( #212, #136, #191 ), #151 ) ;
#197 = AXIS2_PLACEMENT_3D ( 'NONE', #35, #110, #220 ) ;
#198 = CC_DESIGN_PERSON_AND_ORGANIZATION_ASSIGNMENT ( #155, #215, ( #186 ) ) ;
#199 = DIRECTION ( 'NONE',  ( -3.491481338843133355E-15, -5.587418454673507298E-16, -1.000000000000000000 ) ) ;
#200 = APPROVAL ( #32, 'UNSPECIFIED' ) ;
#201 = AXIS2_PLACEMENT_3D ( 'NONE', #23, #96, #161 ) ;
#202 = APPROVAL_PERSON_ORGANIZATION ( #203, #200, #52 ) ;
#203 = PERSON_AND_ORGANIZATION ( #33, #180 ) ;
#204 = CALENDAR_DATE ( 2021, 26, 11 ) ;
#205 = DIRECTION ( 'NONE',  ( -3.491481338843133355E-15, 9.031770143711729009E-17, -1.000000000000000000 ) ) ;
#206 = COORDINATED_UNIVERSAL_TIME_OFFSET ( 1, 0, .AHEAD. ) ;
#207 = AXIS2_PLACEMENT_3D ( 'NONE', #62, #114, #17 ) ;
#208 = EDGE_CURVE ( 'NONE', #112, #112, #30, .T. ) ;
#209 = PERSON_AND_ORGANIZATION ( #33, #180 ) ;
#210 = CYLINDRICAL_SURFACE ( 'NONE', #240, 1.999999999999993561 ) ;
#211 = ORIENTED_EDGE ( 'NONE', *, *, #138, .T. ) ;
#212 = MANIFOLD_SOLID_BREP ( 'Corps-Déplacer/Copier1[1]', #29 ) ;
#213 = DIRECTION ( 'NONE',  ( 1.950836726680029227E-30, -1.000000000000000000, 5.587418454673507298E-16 ) ) ;
#214 = APPROVAL_STATUS ( 'not_yet_approved' ) ;
#215 = PERSON_AND_ORGANIZATION_ROLE ( 'creator' ) ;
#216 = EDGE_LOOP ( 'NONE', ( #50 ) ) ;
#217 = CIRCLE ( 'NONE', #24, 3.040000000000000036 ) ;
#218 = COORDINATED_UNIVERSAL_TIME_OFFSET ( 1, 0, .AHEAD. ) ;
#219 = DIRECTION ( 'NONE',  ( -3.153425691349006731E-31, -1.000000000000000000, -9.031770143711729009E-17 ) ) ;
#220 = DIRECTION ( 'NONE',  ( -1.950836726680028876E-30, 1.000000000000000000, -5.587418454673507298E-16 ) ) ;
#221 = LOCAL_TIME ( 11, 4, 34.00000000000000000, #225 ) ;
#222 = FACE_OUTER_BOUND ( 'NONE', #168, .T. ) ;
#223 = APPROVAL_DATE_TIME ( #120, #200 ) ;
#224 = DIRECTION ( 'NONE',  ( -3.491481338843133355E-15, 9.031770143711729009E-17, -1.000000000000000000 ) ) ;
#225 = COORDINATED_UNIVERSAL_TIME_OFFSET ( 1, 0, .AHEAD. ) ;
#226 = ORIENTED_EDGE ( 'NONE', *, *, #51, .T. ) ;
#227 = CARTESIAN_POINT ( 'NONE',  ( -6.842277657836020854E-46, 2.809059892324149210, 0.0000000000000000000 ) ) ;
#228 =( NAMED_UNIT ( * ) PLANE_ANGLE_UNIT ( ) SI_UNIT ( $, .RADIAN. ) );
#229 = ORIENTED_EDGE ( 'NONE', *, *, #99, .T. ) ;
#230 = APPROVAL_STATUS ( 'not_yet_approved' ) ;
#231 = DIRECTION ( 'NONE',  ( -3.491481338843133355E-15, -5.587418454673507298E-16, -1.000000000000000000 ) ) ;
#232 = DATE_AND_TIME ( #204, #221 ) ;
#233 = VERTEX_POINT ( 'NONE', #54 ) ;
#234 = CONICAL_SURFACE ( 'NONE', #207, 1.999999999999995337, 0.7853981633974516097 ) ;
#235 = VERTEX_POINT ( 'NONE', #57 ) ;
#236 = DESIGN_CONTEXT ( 'detailed design', #27, 'design' ) ;
#237 = DIRECTION ( 'NONE',  ( -3.491481338843133355E-15, 9.031770143711729009E-17, -1.000000000000000000 ) ) ;
#238 = ADVANCED_FACE ( 'NONE', ( #101 ), #86, .T. ) ;
#239 = APPLICATION_CONTEXT ( 'configuration controlled 3d designs of mechanical parts and assemblies' ) ;
#240 = AXIS2_PLACEMENT_3D ( 'NONE', #124, #189, #53 ) ;
#241 = CARTESIAN_POINT ( 'NONE',  ( 4.256299260409867015E-14, 6.811356764721280550E-15, 12.19052558883258364 ) ) ;
#242 = DIRECTION ( 'NONE',  ( -1.963941719605406051E-30, 1.000000000000000000, -5.528004497870173644E-16 ) ) ;
#243 = MECHANICAL_CONTEXT ( 'NONE', #239, 'mechanical' ) ;
ENDSEC;
END-ISO-10303-21;
