ISO-10303-21;
HEADER;
FILE_DESCRIPTION (( 'STEP AP203' ),
    '1' );
FILE_NAME ('321510.step',
    '2021-11-26T10:04:34',
    ( '' ),
    ( '' ),
    'SwSTEP 2.0',
    'SolidWorks 2019',
    '' );
FILE_SCHEMA (( 'CONFIG_CONTROL_DESIGN' ));
ENDSEC;

DATA;
#1 = PERSON_AND_ORGANIZATION ( #98, #204 ) ;
#2 = PERSON_AND_ORGANIZATION_ROLE ( 'design_owner' ) ;
#3 = PLANE ( 'NONE',  #219 ) ;
#4 = APPROVAL_PERSON_ORGANIZATION ( #196, #194, #215 ) ;
#5 = ORIENTED_EDGE ( 'NONE', *, *, #131, .T. ) ;
#6 = EDGE_LOOP ( 'NONE', ( #177 ) ) ;
#7 = DIRECTION ( 'NONE',  ( -3.491481338843133355E-15, 9.031770143711729009E-17, -1.000000000000000000 ) ) ;
#8 = ORIENTED_EDGE ( 'NONE', *, *, #137, .F. ) ;
#9 = PLANE ( 'NONE',  #227 ) ;
#10 = DIRECTION ( 'NONE',  ( 0.0000000000000000000, 1.000000000000000000, 0.0000000000000000000 ) ) ;
#11 = ORIENTED_EDGE ( 'NONE', *, *, #96, .F. ) ;
#12 = FACE_OUTER_BOUND ( 'NONE', #155, .T. ) ;
#13 = CARTESIAN_POINT ( 'NONE',  ( 0.0000000000000000000, 0.0000000000000000000, 0.0000000000000000000 ) ) ;
#14 = CALENDAR_DATE ( 2021, 26, 11 ) ;
#15 = APPROVAL_STATUS ( 'not_yet_approved' ) ;
#16 = MANIFOLD_SOLID_BREP ( 'Corps-Déplacer/Copier1[1]', #83 ) ;
#17 =( GEOMETRIC_REPRESENTATION_CONTEXT ( 3 ) GLOBAL_UNCERTAINTY_ASSIGNED_CONTEXT ( ( #77 ) ) GLOBAL_UNIT_ASSIGNED_CONTEXT ( ( #134, #84, #95 ) ) REPRESENTATION_CONTEXT ( 'NONE', 'WORKASPACE' ) );
#18 = CC_DESIGN_PERSON_AND_ORGANIZATION_ASSIGNMENT ( #24, #125, ( #235 ) ) ;
#19 = VERTEX_POINT ( 'NONE', #239 ) ;
#20 = CARTESIAN_POINT ( 'NONE',  ( 2.779219145719134403E-13, 1.999999999999988010, 79.60000000000000853 ) ) ;
#21 = FACE_OUTER_BOUND ( 'NONE', #129, .T. ) ;
#22 = PRODUCT_DEFINITION_SHAPE ( 'NONE', 'NONE',  #97 ) ;
#23 = APPROVAL_STATUS ( 'not_yet_approved' ) ;
#24 = PERSON_AND_ORGANIZATION ( #98, #204 ) ;
#25 = LOCAL_TIME ( 11, 4, 34.00000000000000000, #89 ) ;
#26 = CC_DESIGN_DATE_AND_TIME_ASSIGNMENT ( #216, #58, ( #97 ) ) ;
#27 = ORIENTED_EDGE ( 'NONE', *, *, #106, .F. ) ;
#28 = CARTESIAN_POINT ( 'NONE',  ( 2.793185071074506684E-13, -7.225416114969383207E-15, 80.00000000000000000 ) ) ;
#29 = DIRECTION ( 'NONE',  ( 1.948844733176421072E-30, -1.000000000000000000, 5.581713158524716074E-16 ) ) ;
#30 = CIRCLE ( 'NONE', #212, 2.804059892324148873 ) ;
#31 = DIRECTION ( 'NONE',  ( 0.0000000000000000000, 1.000000000000000000, 0.0000000000000000000 ) ) ;
#32 = CONICAL_SURFACE ( 'NONE', #180, 3.035000000000000142, 0.5235987755982930425 ) ;
#33 = FACE_OUTER_BOUND ( 'NONE', #222, .T. ) ;
#34 = ADVANCED_FACE ( 'NONE', ( #126 ), #3, .T. ) ;
#35 = APPLICATION_PROTOCOL_DEFINITION ( 'international standard', 'config_control_design', 1994, #135 ) ;
#36 = CALENDAR_DATE ( 2021, 26, 11 ) ;
#37 = CLOSED_SHELL ( 'NONE', ( #34, #213, #52, #124 ) ) ;
#38 = PERSON_AND_ORGANIZATION ( #98, #204 ) ;
#39 = EDGE_LOOP ( 'NONE', ( #27 ) ) ;
#40 = APPROVAL_DATE_TIME ( #225, #194 ) ;
#41 = FACE_OUTER_BOUND ( 'NONE', #226, .T. ) ;
#42 = ADVANCED_FACE ( 'NONE', ( #93, #91 ), #32, .T. ) ;
#43 = APPROVAL ( #15, 'UNSPECIFIED' ) ;
#44 = ORIENTED_EDGE ( 'NONE', *, *, #96, .T. ) ;
#45 = AXIS2_PLACEMENT_3D ( 'NONE', #13, #111, #237 ) ;
#46 = ORIENTED_EDGE ( 'NONE', *, *, #173, .F. ) ;
#47 = CARTESIAN_POINT ( 'NONE',  ( -2.732338676333579955E-30, 2.804059892324148873, -7.825728999138549932E-16 ) ) ;
#48 = MECHANICAL_CONTEXT ( 'NONE', #102, 'mechanical' ) ;
#49 = DIRECTION ( 'NONE',  ( -1.967177208435069105E-30, 1.000000000000000000, -5.537111589299943601E-16 ) ) ;
#50 = FACE_BOUND ( 'NONE', #68, .T. ) ;
#51 = APPROVAL_PERSON_ORGANIZATION ( #117, #43, #99 ) ;
#52 = ADVANCED_FACE ( 'NONE', ( #41, #50 ), #60, .T. ) ;
#53 = VERTEX_POINT ( 'NONE', #184 ) ;
#54 = DIRECTION ( 'NONE',  ( 1.000000000000000000, 0.0000000000000000000, 0.0000000000000000000 ) ) ;
#55 = PRODUCT ( '321510', '321510', '', ( #48 ) ) ;
#56 = EDGE_CURVE ( 'NONE', #118, #118, #103, .T. ) ;
#57 = VERTEX_POINT ( 'NONE', #101 ) ;
#58 = DATE_TIME_ROLE ( 'creation_date' ) ;
#59 = CYLINDRICAL_SURFACE ( 'NONE', #149, 1.999999999999993561 ) ;
#60 = CONICAL_SURFACE ( 'NONE', #79, 2.804059892324148873, 0.5235987755982969283 ) ;
#61 = COORDINATED_UNIVERSAL_TIME_OFFSET ( 1, 0, .AHEAD. ) ;
#62 = AXIS2_PLACEMENT_3D ( 'NONE', #47, #210, #190 ) ;
#63 = CC_DESIGN_PERSON_AND_ORGANIZATION_ASSIGNMENT ( #220, #136, ( #141 ) ) ;
#64 = ADVANCED_FACE ( 'NONE', ( #21, #217 ), #59, .T. ) ;
#65 = DIRECTION ( 'NONE',  ( -3.491481338843133355E-15, -5.581713158524716074E-16, -1.000000000000000000 ) ) ;
#66 = PERSON_AND_ORGANIZATION_ROLE ( 'design_supplier' ) ;
#67 = DIRECTION ( 'NONE',  ( -3.491481338843133355E-15, 9.031770143711729009E-17, -1.000000000000000000 ) ) ;
#68 = EDGE_LOOP ( 'NONE', ( #11 ) ) ;
#69 = LOCAL_TIME ( 11, 4, 34.00000000000000000, #187 ) ;
#70 = CIRCLE ( 'NONE', #123, 3.034999999999998366 ) ;
#71 = APPLICATION_PROTOCOL_DEFINITION ( 'international standard', 'config_control_design', 1994, #102 ) ;
#72 = EDGE_LOOP ( 'NONE', ( #8 ) ) ;
#73 = CARTESIAN_POINT ( 'NONE',  ( 1.396592535537259259E-15, 2.232685263409896291E-16, 0.4000000000000016875 ) ) ;
#74 = DIRECTION ( 'NONE',  ( 3.491481338843133355E-15, 5.581713158524716074E-16, 1.000000000000000000 ) ) ;
#75 = DIRECTION ( 'NONE',  ( -3.491481338843133355E-15, 9.031770143711729009E-17, -1.000000000000000000 ) ) ;
#76 = AXIS2_PLACEMENT_3D ( 'NONE', #229, #157, #10 ) ;
#77 = UNCERTAINTY_MEASURE_WITH_UNIT (LENGTH_MEASURE( 1.000000000000000082E-05 ), #134, 'distance_accuracy_value', 'NONE');
#78 = CARTESIAN_POINT ( 'NONE',  ( 0.0000000000000000000, 0.0000000000000000000, 0.0000000000000000000 ) ) ;
#79 = AXIS2_PLACEMENT_3D ( 'NONE', #158, #230, #107 ) ;
#80 = DESIGN_CONTEXT ( 'detailed design', #135, 'design' ) ;
#81 = PLANE ( 'NONE',  #100 ) ;
#82 = DIRECTION ( 'NONE',  ( 3.153425691349006731E-31, 1.000000000000000000, 9.031770143711729009E-17 ) ) ;
#83 = CLOSED_SHELL ( 'NONE', ( #198, #202, #64, #42, #195 ) ) ;
#84 =( NAMED_UNIT ( * ) PLANE_ANGLE_UNIT ( ) SI_UNIT ( $, .RADIAN. ) );
#85 = DATE_TIME_ROLE ( 'classification_date' ) ;
#86 = CARTESIAN_POINT ( 'NONE',  ( 4.259322971946143888E-14, 6.809235614243829673E-15, 12.19918584287042762 ) ) ;
#87 = LOCAL_TIME ( 11, 4, 34.00000000000000000, #162 ) ;
#88 = EDGE_LOOP ( 'NONE', ( #144 ) ) ;
#89 = COORDINATED_UNIVERSAL_TIME_OFFSET ( 1, 0, .AHEAD. ) ;
#90 = FACE_OUTER_BOUND ( 'NONE', #188, .T. ) ;
#91 = FACE_OUTER_BOUND ( 'NONE', #72, .T. ) ;
#92 = DIRECTION ( 'NONE',  ( -3.491481338843133355E-15, 9.031770143711729009E-17, -1.000000000000000000 ) ) ;
#93 = FACE_BOUND ( 'NONE', #224, .T. ) ;
#94 = CYLINDRICAL_SURFACE ( 'NONE', #45, 3.034999999999995257 ) ;
#95 =( NAMED_UNIT ( * ) SI_UNIT ( $, .STERADIAN. ) SOLID_ANGLE_UNIT ( ) );
#96 = EDGE_CURVE ( 'NONE', #19, #19, #30, .T. ) ;
#97 = PRODUCT_DEFINITION ( 'UNKNOWN', '', #141, #80 ) ;
#98 = PERSON ( 'UNSPECIFIED', 'UNSPECIFIED', 'UNSPECIFIED', ('UNSPECIFIED'), ('UNSPECIFIED'), ('UNSPECIFIED') ) ;
#99 = APPROVAL_ROLE ( '' ) ;
#100 = AXIS2_PLACEMENT_3D ( 'NONE', #150, #115, #200 ) ;
#101 = CARTESIAN_POINT ( 'NONE',  ( 4.885231259955590439E-14, 1.999999999999990452, 13.99185842870425134 ) ) ;
#102 = APPLICATION_CONTEXT ( 'configuration controlled 3d designs of mechanical parts and assemblies' ) ;
#103 = CIRCLE ( 'NONE', #170, 3.034999999999991704 ) ;
#104 = DIRECTION ( 'NONE',  ( -3.491481338843133355E-15, -5.581713158524716074E-16, -1.000000000000000000 ) ) ;
#105 = MANIFOLD_SOLID_BREP ( 'Corps-Déplacer/Copier1[2]', #37 ) ;
#106 = EDGE_CURVE ( 'NONE', #57, #57, #165, .T. ) ;
#107 = DIRECTION ( 'NONE',  ( 1.948844733176421072E-30, -1.000000000000000000, 5.581713158524716074E-16 ) ) ;
#108 = CC_DESIGN_APPROVAL ( #194, ( #141 ) ) ;
#109 = EDGE_LOOP ( 'NONE', ( #211 ) ) ;
#110 = PERSON_AND_ORGANIZATION ( #98, #204 ) ;
#111 = DIRECTION ( 'NONE',  ( -3.491481338843133355E-15, -5.581713158524716074E-16, -1.000000000000000000 ) ) ;
#112 = DIRECTION ( 'NONE',  ( -3.491481338843133355E-15, -5.581713158524716074E-16, -1.000000000000000000 ) ) ;
#113 = CIRCLE ( 'NONE', #76, 3.035000000000000142 ) ;
#114 = APPROVAL_STATUS ( 'not_yet_approved' ) ;
#115 = DIRECTION ( 'NONE',  ( 3.491481338843133355E-15, -9.031770143711729009E-17, 1.000000000000000000 ) ) ;
#116 = AXIS2_PLACEMENT_3D ( 'NONE', #119, #186, #243 ) ;
#117 = PERSON_AND_ORGANIZATION ( #98, #204 ) ;
#118 = VERTEX_POINT ( 'NONE', #238 ) ;
#119 = CARTESIAN_POINT ( 'NONE',  ( 2.779219145719134403E-13, -7.189289034394536528E-15, 79.60000000000000853 ) ) ;
#120 = DATE_AND_TIME ( #223, #25 ) ;
#121 = SHAPE_DEFINITION_REPRESENTATION ( #22, #228 ) ;
#122 = ORIENTED_EDGE ( 'NONE', *, *, #131, .F. ) ;
#123 = AXIS2_PLACEMENT_3D ( 'NONE', #73, #112, #49 ) ;
#124 = ADVANCED_FACE ( 'NONE', ( #90 ), #231, .T. ) ;
#125 = PERSON_AND_ORGANIZATION_ROLE ( 'classification_officer' ) ;
#126 = FACE_OUTER_BOUND ( 'NONE', #109, .T. ) ;
#127 = CARTESIAN_POINT ( 'NONE',  ( 4.885231259955590439E-14, -1.263712492114123682E-15, 13.99185842870425134 ) ) ;
#128 = APPROVAL_DATE_TIME ( #234, #43 ) ;
#129 = EDGE_LOOP ( 'NONE', ( #5 ) ) ;
#130 = PERSON_AND_ORGANIZATION_ROLE ( 'creator' ) ;
#131 = EDGE_CURVE ( 'NONE', #132, #132, #169, .T. ) ;
#132 = VERTEX_POINT ( 'NONE', #20 ) ;
#133 = APPROVAL_PERSON_ORGANIZATION ( #38, #207, #153 ) ;
#134 =( LENGTH_UNIT ( ) NAMED_UNIT ( * ) SI_UNIT ( .MILLI., .METRE. ) );
#135 = APPLICATION_CONTEXT ( 'configuration controlled 3d designs of mechanical parts and assemblies' ) ;
#136 = PERSON_AND_ORGANIZATION_ROLE ( 'creator' ) ;
#137 = EDGE_CURVE ( 'NONE', #53, #53, #113, .T. ) ;
#138 = CC_DESIGN_DATE_AND_TIME_ASSIGNMENT ( #199, #85, ( #235 ) ) ;
#139 = DIRECTION ( 'NONE',  ( 3.153425691349006731E-31, 1.000000000000000000, 9.031770143711729009E-17 ) ) ;
#140 = EDGE_LOOP ( 'NONE', ( #46 ) ) ;
#141 = PRODUCT_DEFINITION_FORMATION_WITH_SPECIFIED_SOURCE ( 'ANY', '', #55, .NOT_KNOWN. ) ;
#142 = CARTESIAN_POINT ( 'NONE',  ( 4.259322971946143257E-14, -1.101802424732279180E-15, 12.19918584287042584 ) ) ;
#143 = DIRECTION ( 'NONE',  ( -1.948844733176421072E-30, 1.000000000000000000, -5.581713158524716074E-16 ) ) ;
#144 = ORIENTED_EDGE ( 'NONE', *, *, #173, .T. ) ;
#145 = CALENDAR_DATE ( 2021, 26, 11 ) ;
#146 = CC_DESIGN_APPROVAL ( #43, ( #97 ) ) ;
#147 = DIRECTION ( 'NONE',  ( 0.0000000000000000000, 0.0000000000000000000, 1.000000000000000000 ) ) ;
#148 = VERTEX_POINT ( 'NONE', #164 ) ;
#149 = AXIS2_PLACEMENT_3D ( 'NONE', #206, #67, #139 ) ;
#150 = CARTESIAN_POINT ( 'NONE',  ( 2.793185071074506684E-13, -7.225416114969383207E-15, 80.00000000000000000 ) ) ;
#151 = AXIS2_PLACEMENT_3D ( 'NONE', #179, #7, #208 ) ;
#152 = PERSON_AND_ORGANIZATION ( #98, #204 ) ;
#153 = APPROVAL_ROLE ( '' ) ;
#154 = SECURITY_CLASSIFICATION_LEVEL ( 'unclassified' ) ;
#155 = EDGE_LOOP ( 'NONE', ( #232 ) ) ;
#156 = ORIENTED_EDGE ( 'NONE', *, *, #106, .T. ) ;
#157 = DIRECTION ( 'NONE',  ( -3.491481338843133355E-15, 9.031770143711729009E-17, -1.000000000000000000 ) ) ;
#158 = CARTESIAN_POINT ( 'NONE',  ( 5.464677352667159910E-30, 8.736194905908020472E-31, 1.565145799827709986E-15 ) ) ;
#159 = DIRECTION ( 'NONE',  ( -3.491481338843133355E-15, 9.031770143711729009E-17, -1.000000000000000000 ) ) ;
#160 = PRODUCT_RELATED_PRODUCT_CATEGORY ( 'detail', '', ( #55 ) ) ;
#161 = CC_DESIGN_APPROVAL ( #207, ( #235 ) ) ;
#162 = COORDINATED_UNIVERSAL_TIME_OFFSET ( 1, 0, .AHEAD. ) ;
#163 = VERTEX_POINT ( 'NONE', #233 ) ;
#164 = CARTESIAN_POINT ( 'NONE',  ( 1.396592535537253342E-15, 3.034999999999998810, 0.4000000000000000222 ) ) ;
#165 = CIRCLE ( 'NONE', #201, 1.999999999999991784 ) ;
#166 = CC_DESIGN_PERSON_AND_ORGANIZATION_ASSIGNMENT ( #152, #2, ( #55 ) ) ;
#167 = EDGE_CURVE ( 'NONE', #148, #148, #70, .T. ) ;
#168 = DIRECTION ( 'NONE',  ( -3.491481338843133355E-15, 9.031770143711729009E-17, -1.000000000000000000 ) ) ;
#169 = CIRCLE ( 'NONE', #151, 1.999999999999995337 ) ;
#170 = AXIS2_PLACEMENT_3D ( 'NONE', #86, #65, #203 ) ;
#171 = APPROVAL_DATE_TIME ( #120, #207 ) ;
#172 = CALENDAR_DATE ( 2021, 26, 11 ) ;
#173 = EDGE_CURVE ( 'NONE', #163, #163, #193, .T. ) ;
#174 = CONICAL_SURFACE ( 'NONE', #116, 1.999999999999995337, 0.7853981633974516097 ) ;
#175 = EDGE_LOOP ( 'NONE', ( #205 ) ) ;
#176 = DIRECTION ( 'NONE',  ( 0.0000000000000000000, 1.000000000000000000, 0.0000000000000000000 ) ) ;
#177 = ORIENTED_EDGE ( 'NONE', *, *, #167, .F. ) ;
#178 = DIRECTION ( 'NONE',  ( 0.0000000000000000000, 1.000000000000000000, 0.0000000000000000000 ) ) ;
#179 = CARTESIAN_POINT ( 'NONE',  ( 2.779219145719134403E-13, -7.189289034394536528E-15, 79.60000000000000853 ) ) ;
#180 = AXIS2_PLACEMENT_3D ( 'NONE', #142, #159, #31 ) ;
#181 = CC_DESIGN_SECURITY_CLASSIFICATION ( #235, ( #141 ) ) ;
#182 = CC_DESIGN_PERSON_AND_ORGANIZATION_ASSIGNMENT ( #1, #66, ( #141 ) ) ;
#183 = AXIS2_PLACEMENT_3D ( 'NONE', #28, #75, #178 ) ;
#184 = CARTESIAN_POINT ( 'NONE',  ( 4.259322971946143257E-14, 3.034999999999998810, 12.19918584287042584 ) ) ;
#185 = LOCAL_TIME ( 11, 4, 34.00000000000000000, #236 ) ;
#186 = DIRECTION ( 'NONE',  ( -3.491481338843133355E-15, 9.031770143711729009E-17, -1.000000000000000000 ) ) ;
#187 = COORDINATED_UNIVERSAL_TIME_OFFSET ( 1, 0, .AHEAD. ) ;
#188 = EDGE_LOOP ( 'NONE', ( #44 ) ) ;
#189 = ORIENTED_EDGE ( 'NONE', *, *, #167, .T. ) ;
#190 = DIRECTION ( 'NONE',  ( -1.948844733176421072E-30, 1.000000000000000000, -5.581713158524716074E-16 ) ) ;
#191 = CARTESIAN_POINT ( 'NONE',  ( 4.259322971946143888E-14, 6.809235614243830462E-15, 12.19918584287042762 ) ) ;
#192 = FACE_OUTER_BOUND ( 'NONE', #6, .T. ) ;
#193 = CIRCLE ( 'NONE', #183, 1.599999999999994982 ) ;
#194 = APPROVAL ( #114, 'UNSPECIFIED' ) ;
#195 = ADVANCED_FACE ( 'NONE', ( #12 ), #9, .T. ) ;
#196 = PERSON_AND_ORGANIZATION ( #98, #204 ) ;
#197 = LOCAL_TIME ( 11, 4, 34.00000000000000000, #61 ) ;
#198 = ADVANCED_FACE ( 'NONE', ( #240 ), #81, .T. ) ;
#199 = DATE_AND_TIME ( #172, #69 ) ;
#200 = DIRECTION ( 'NONE',  ( -3.153425691349006731E-31, -1.000000000000000000, -9.031770143711729009E-17 ) ) ;
#201 = AXIS2_PLACEMENT_3D ( 'NONE', #127, #92, #176 ) ;
#202 = ADVANCED_FACE ( 'NONE', ( #214, #33 ), #174, .T. ) ;
#203 = DIRECTION ( 'NONE',  ( -2.030634537739430433E-30, 1.000000000000000000, -5.715728092180598935E-16 ) ) ;
#204 = ORGANIZATION ( 'UNSPECIFIED', 'UNSPECIFIED', '' ) ;
#205 = ORIENTED_EDGE ( 'NONE', *, *, #56, .T. ) ;
#206 = CARTESIAN_POINT ( 'NONE',  ( 0.0000000000000000000, 0.0000000000000000000, 0.0000000000000000000 ) ) ;
#207 = APPROVAL ( #23, 'UNSPECIFIED' ) ;
#208 = DIRECTION ( 'NONE',  ( 0.0000000000000000000, 1.000000000000000000, 0.0000000000000000000 ) ) ;
#209 = CARTESIAN_POINT ( 'NONE',  ( 4.259322971946143888E-14, 3.034999999999998810, 12.19918584287042762 ) ) ;
#210 = DIRECTION ( 'NONE',  ( -3.491481338843133355E-15, -5.581713158524716074E-16, -1.000000000000000000 ) ) ;
#211 = ORIENTED_EDGE ( 'NONE', *, *, #56, .F. ) ;
#212 = AXIS2_PLACEMENT_3D ( 'NONE', #218, #104, #143 ) ;
#213 = ADVANCED_FACE ( 'NONE', ( #221, #192 ), #94, .T. ) ;
#214 = FACE_BOUND ( 'NONE', #88, .T. ) ;
#215 = APPROVAL_ROLE ( '' ) ;
#216 = DATE_AND_TIME ( #14, #87 ) ;
#217 = FACE_OUTER_BOUND ( 'NONE', #39, .T. ) ;
#218 = CARTESIAN_POINT ( 'NONE',  ( 5.464677352667159910E-30, 8.736194905908020472E-31, 1.565145799827709986E-15 ) ) ;
#219 = AXIS2_PLACEMENT_3D ( 'NONE', #191, #74, #29 ) ;
#220 = PERSON_AND_ORGANIZATION ( #98, #204 ) ;
#221 = FACE_OUTER_BOUND ( 'NONE', #175, .T. ) ;
#222 = EDGE_LOOP ( 'NONE', ( #122 ) ) ;
#223 = CALENDAR_DATE ( 2021, 26, 11 ) ;
#224 = EDGE_LOOP ( 'NONE', ( #156 ) ) ;
#225 = DATE_AND_TIME ( #36, #197 ) ;
#226 = EDGE_LOOP ( 'NONE', ( #189 ) ) ;
#227 = AXIS2_PLACEMENT_3D ( 'NONE', #209, #168, #82 ) ;
#228 = ADVANCED_BREP_SHAPE_REPRESENTATION ( '321510', ( #16, #105, #242 ), #17 ) ;
#229 = CARTESIAN_POINT ( 'NONE',  ( 4.259322971946143257E-14, -1.101802424732279180E-15, 12.19918584287042584 ) ) ;
#230 = DIRECTION ( 'NONE',  ( 3.491481338843133355E-15, 5.581713158524716074E-16, 1.000000000000000000 ) ) ;
#231 = PLANE ( 'NONE',  #62 ) ;
#232 = ORIENTED_EDGE ( 'NONE', *, *, #137, .T. ) ;
#233 = CARTESIAN_POINT ( 'NONE',  ( 2.793185071074506684E-13, 1.599999999999987876, 80.00000000000000000 ) ) ;
#234 = DATE_AND_TIME ( #145, #185 ) ;
#235 = SECURITY_CLASSIFICATION ( '', '', #154 ) ;
#236 = COORDINATED_UNIVERSAL_TIME_OFFSET ( 1, 0, .AHEAD. ) ;
#237 = DIRECTION ( 'NONE',  ( -1.948844733176421072E-30, 1.000000000000000000, -5.581713158524715088E-16 ) ) ;
#238 = CARTESIAN_POINT ( 'NONE',  ( 4.259322971946143257E-14, 3.034999999999998810, 12.19918584287042584 ) ) ;
#239 = CARTESIAN_POINT ( 'NONE',  ( 0.0000000000000000000, 2.804059892324148873, 0.0000000000000000000 ) ) ;
#240 = FACE_OUTER_BOUND ( 'NONE', #140, .T. ) ;
#241 = CC_DESIGN_PERSON_AND_ORGANIZATION_ASSIGNMENT ( #110, #130, ( #97 ) ) ;
#242 = AXIS2_PLACEMENT_3D ( 'NONE', #78, #147, #54 ) ;
#243 = DIRECTION ( 'NONE',  ( 0.0000000000000000000, 1.000000000000000000, 0.0000000000000000000 ) ) ;
ENDSEC;
END-ISO-10303-21;
