ISO-10303-21;
HEADER;
FILE_DESCRIPTION (( 'STEP AP203' ),
    '1' );
FILE_NAME ('321509.step',
    '2021-11-26T10:04:33',
    ( '' ),
    ( '' ),
    'SwSTEP 2.0',
    'SolidWorks 2019',
    '' );
FILE_SCHEMA (( 'CONFIG_CONTROL_DESIGN' ));
ENDSEC;

DATA;
#1 = CC_DESIGN_PERSON_AND_ORGANIZATION_ASSIGNMENT ( #91, #163, ( #39 ) ) ;
#2 = CARTESIAN_POINT ( 'NONE',  ( 4.262346683482420761E-14, -1.102584598970838871E-15, 12.20784609690827160 ) ) ;
#3 = FACE_OUTER_BOUND ( 'NONE', #201, .T. ) ;
#4 = CLOSED_SHELL ( 'NONE', ( #202, #164, #51, #162, #31 ) ) ;
#5 = DIRECTION ( 'NONE',  ( -1.946855565915814125E-30, 1.000000000000000000, -5.576015957057598691E-16 ) ) ;
#6 = DIRECTION ( 'NONE',  ( -3.491481338843133355E-15, 9.031770143711729009E-17, -1.000000000000000000 ) ) ;
#7 = CARTESIAN_POINT ( 'NONE',  ( 2.793185071074506684E-13, -7.225416114969383207E-15, 80.00000000000000000 ) ) ;
#8 = DATE_TIME_ROLE ( 'creation_date' ) ;
#9 = APPROVAL_ROLE ( '' ) ;
#10 = PLANE ( 'NONE',  #109 ) ;
#11 = CARTESIAN_POINT ( 'NONE',  ( 5.449365330702987537E-30, 8.702824128484194328E-31, 1.560760262435937686E-15 ) ) ;
#12 = CARTESIAN_POINT ( 'NONE',  ( 4.262346683482420761E-14, 3.029999999999998472, 12.20784609690827160 ) ) ;
#13 = APPROVAL ( #90, 'UNSPECIFIED' ) ;
#14 = VERTEX_POINT ( 'NONE', #52 ) ;
#15 = EDGE_LOOP ( 'NONE', ( #16 ) ) ;
#16 = ORIENTED_EDGE ( 'NONE', *, *, #235, .F. ) ;
#17 = AXIS2_PLACEMENT_3D ( 'NONE', #205, #43, #192 ) ;
#18 = CARTESIAN_POINT ( 'NONE',  ( 0.0000000000000000000, 0.0000000000000000000, 0.0000000000000000000 ) ) ;
#19 = ADVANCED_FACE ( 'NONE', ( #129, #207 ), #119, .T. ) ;
#20 = CARTESIAN_POINT ( 'NONE',  ( 0.0000000000000000000, 0.0000000000000000000, 0.0000000000000000000 ) ) ;
#21 = CARTESIAN_POINT ( 'NONE',  ( 4.885231259955590439E-14, -1.263712492114123682E-15, 13.99185842870425134 ) ) ;
#22 = CALENDAR_DATE ( 2021, 26, 11 ) ;
#23 = CARTESIAN_POINT ( 'NONE',  ( -2.724682665351493768E-30, 2.799059892324148535, -7.803801312179688431E-16 ) ) ;
#24 = APPROVAL_DATE_TIME ( #48, #47 ) ;
#25 = DIRECTION ( 'NONE',  ( 3.491481338843133355E-15, 5.576015957057598691E-16, 1.000000000000000000 ) ) ;
#26 = AXIS2_PLACEMENT_3D ( 'NONE', #21, #209, #68 ) ;
#27 = ADVANCED_FACE ( 'NONE', ( #28 ), #10, .T. ) ;
#28 = FACE_OUTER_BOUND ( 'NONE', #117, .T. ) ;
#29 = VERTEX_POINT ( 'NONE', #116 ) ;
#30 = CARTESIAN_POINT ( 'NONE',  ( 4.262346683482420130E-14, 6.807114463766383529E-15, 12.20784609690826983 ) ) ;
#31 = ADVANCED_FACE ( 'NONE', ( #59 ), #101, .T. ) ;
#32 = CIRCLE ( 'NONE', #224, 3.029999999999998028 ) ;
#33 = ORIENTED_EDGE ( 'NONE', *, *, #148, .F. ) ;
#34 = PERSON_AND_ORGANIZATION ( #94, #147 ) ;
#35 = ORIENTED_EDGE ( 'NONE', *, *, #60, .T. ) ;
#36 = AXIS2_PLACEMENT_3D ( 'NONE', #63, #191, #41 ) ;
#37 = AXIS2_PLACEMENT_3D ( 'NONE', #67, #243, #172 ) ;
#38 = CARTESIAN_POINT ( 'NONE',  ( 4.262346683482421392E-14, 6.807114463766385895E-15, 12.20784609690827338 ) ) ;
#39 = PRODUCT_DEFINITION ( 'UNKNOWN', '', #120, #74 ) ;
#40 = CIRCLE ( 'NONE', #136, 3.029999999999991367 ) ;
#41 = DIRECTION ( 'NONE',  ( 3.153425691349006731E-31, 1.000000000000000000, 9.031770143711729009E-17 ) ) ;
#42 = FACE_OUTER_BOUND ( 'NONE', #234, .T. ) ;
#43 = DIRECTION ( 'NONE',  ( -3.491481338843133355E-15, 9.031770143711729009E-17, -1.000000000000000000 ) ) ;
#44 = PRODUCT ( '321509', '321509', '', ( #138 ) ) ;
#45 =( NAMED_UNIT ( * ) SI_UNIT ( $, .STERADIAN. ) SOLID_ANGLE_UNIT ( ) );
#46 = FACE_OUTER_BOUND ( 'NONE', #219, .T. ) ;
#47 = APPROVAL ( #200, 'UNSPECIFIED' ) ;
#48 = DATE_AND_TIME ( #110, #217 ) ;
#49 = DATE_AND_TIME ( #226, #82 ) ;
#50 = PERSON_AND_ORGANIZATION_ROLE ( 'design_owner' ) ;
#51 = ADVANCED_FACE ( 'NONE', ( #46, #125 ), #103, .T. ) ;
#52 = CARTESIAN_POINT ( 'NONE',  ( 4.262346683482420761E-14, 3.029999999999998472, 12.20784609690827160 ) ) ;
#53 = CIRCLE ( 'NONE', #17, 3.029999999999999805 ) ;
#54 = APPROVAL_PERSON_ORGANIZATION ( #218, #47, #215 ) ;
#55 = APPLICATION_PROTOCOL_DEFINITION ( 'international standard', 'config_control_design', 1994, #102 ) ;
#56 = CARTESIAN_POINT ( 'NONE',  ( 4.885231259955590439E-14, 1.999999999999990452, 13.99185842870425134 ) ) ;
#57 = COORDINATED_UNIVERSAL_TIME_OFFSET ( 1, 0, .AHEAD. ) ;
#58 = ORIENTED_EDGE ( 'NONE', *, *, #158, .T. ) ;
#59 = FACE_OUTER_BOUND ( 'NONE', #185, .T. ) ;
#60 = EDGE_CURVE ( 'NONE', #29, #29, #32, .T. ) ;
#61 = AXIS2_PLACEMENT_3D ( 'NONE', #11, #25, #199 ) ;
#62 = ORIENTED_EDGE ( 'NONE', *, *, #127, .F. ) ;
#63 = CARTESIAN_POINT ( 'NONE',  ( 4.262346683482420130E-14, 3.029999999999998472, 12.20784609690826983 ) ) ;
#64 = LOCAL_TIME ( 11, 4, 33.00000000000000000, #195 ) ;
#65 = CARTESIAN_POINT ( 'NONE',  ( 1.396592535537259259E-15, 2.230406382823048844E-16, 0.4000000000000016875 ) ) ;
#66 = AXIS2_PLACEMENT_3D ( 'NONE', #7, #107, #231 ) ;
#67 = CARTESIAN_POINT ( 'NONE',  ( 0.0000000000000000000, 0.0000000000000000000, 0.0000000000000000000 ) ) ;
#68 = DIRECTION ( 'NONE',  ( 0.0000000000000000000, 1.000000000000000000, 0.0000000000000000000 ) ) ;
#69 = ADVANCED_FACE ( 'NONE', ( #83, #3 ), #85, .T. ) ;
#70 = DIRECTION ( 'NONE',  ( 0.0000000000000000000, 1.000000000000000000, 0.0000000000000000000 ) ) ;
#71 = AXIS2_PLACEMENT_3D ( 'NONE', #208, #6, #70 ) ;
#72 = SECURITY_CLASSIFICATION_LEVEL ( 'unclassified' ) ;
#73 = EDGE_CURVE ( 'NONE', #184, #184, #186, .T. ) ;
#74 = DESIGN_CONTEXT ( 'detailed design', #102, 'design' ) ;
#75 = CIRCLE ( 'NONE', #232, 1.599999999999994982 ) ;
#76 = MANIFOLD_SOLID_BREP ( 'Corps-Déplacer/Copier1[2]', #151 ) ;
#77 =( GEOMETRIC_REPRESENTATION_CONTEXT ( 3 ) GLOBAL_UNCERTAINTY_ASSIGNED_CONTEXT ( ( #123 ) ) GLOBAL_UNIT_ASSIGNED_CONTEXT ( ( #93, #166, #45 ) ) REPRESENTATION_CONTEXT ( 'NONE', 'WORKASPACE' ) );
#78 = DIRECTION ( 'NONE',  ( -1.946855565915814125E-30, 1.000000000000000000, -5.576015957057598691E-16 ) ) ;
#79 = CARTESIAN_POINT ( 'NONE',  ( 5.449365330702987537E-30, 8.702824128484194328E-31, 1.560760262435937686E-15 ) ) ;
#80 = ORIENTED_EDGE ( 'NONE', *, *, #127, .T. ) ;
#81 = ORIENTED_EDGE ( 'NONE', *, *, #106, .T. ) ;
#82 = LOCAL_TIME ( 11, 4, 33.00000000000000000, #212 ) ;
#83 = FACE_OUTER_BOUND ( 'NONE', #239, .T. ) ;
#84 = DIRECTION ( 'NONE',  ( -3.491481338843133355E-15, 9.031770143711729009E-17, -1.000000000000000000 ) ) ;
#85 = CYLINDRICAL_SURFACE ( 'NONE', #144, 3.029999999999994476 ) ;
#86 = PERSON_AND_ORGANIZATION_ROLE ( 'design_supplier' ) ;
#87 = FACE_BOUND ( 'NONE', #203, .T. ) ;
#88 = CC_DESIGN_DATE_AND_TIME_ASSIGNMENT ( #128, #8, ( #39 ) ) ;
#89 = DIRECTION ( 'NONE',  ( -3.491481338843133355E-15, 9.031770143711729009E-17, -1.000000000000000000 ) ) ;
#90 = APPROVAL_STATUS ( 'not_yet_approved' ) ;
#91 = PERSON_AND_ORGANIZATION ( #94, #147 ) ;
#92 = CIRCLE ( 'NONE', #26, 1.999999999999991784 ) ;
#93 =( LENGTH_UNIT ( ) NAMED_UNIT ( * ) SI_UNIT ( .MILLI., .METRE. ) );
#94 = PERSON ( 'UNSPECIFIED', 'UNSPECIFIED', 'UNSPECIFIED', ('UNSPECIFIED'), ('UNSPECIFIED'), ('UNSPECIFIED') ) ;
#95 = APPLICATION_CONTEXT ( 'configuration controlled 3d designs of mechanical parts and assemblies' ) ;
#96 = COORDINATED_UNIVERSAL_TIME_OFFSET ( 1, 0, .AHEAD. ) ;
#97 = ADVANCED_FACE ( 'NONE', ( #238 ), #153, .T. ) ;
#98 = VERTEX_POINT ( 'NONE', #56 ) ;
#99 = ORIENTED_EDGE ( 'NONE', *, *, #60, .F. ) ;
#100 = EDGE_LOOP ( 'NONE', ( #33 ) ) ;
#101 = PLANE ( 'NONE',  #36 ) ;
#102 = APPLICATION_CONTEXT ( 'configuration controlled 3d designs of mechanical parts and assemblies' ) ;
#103 = CYLINDRICAL_SURFACE ( 'NONE', #176, 1.999999999999993561 ) ;
#104 = DIRECTION ( 'NONE',  ( 3.153425691349006731E-31, 1.000000000000000000, 9.031770143711729009E-17 ) ) ;
#105 = CALENDAR_DATE ( 2021, 26, 11 ) ;
#106 = EDGE_CURVE ( 'NONE', #233, #233, #169, .T. ) ;
#107 = DIRECTION ( 'NONE',  ( 3.491481338843133355E-15, -9.031770143711729009E-17, 1.000000000000000000 ) ) ;
#108 = CARTESIAN_POINT ( 'NONE',  ( 2.779219145719134403E-13, -7.189289034394536528E-15, 79.60000000000000853 ) ) ;
#109 = AXIS2_PLACEMENT_3D ( 'NONE', #23, #180, #141 ) ;
#110 = CALENDAR_DATE ( 2021, 26, 11 ) ;
#111 = DIRECTION ( 'NONE',  ( -2.033985419814908270E-30, 1.000000000000000000, -5.725159986722151721E-16 ) ) ;
#112 = APPROVAL_PERSON_ORGANIZATION ( #34, #183, #9 ) ;
#113 = PERSON_AND_ORGANIZATION_ROLE ( 'classification_officer' ) ;
#114 = APPROVAL_STATUS ( 'not_yet_approved' ) ;
#115 = CARTESIAN_POINT ( 'NONE',  ( 2.779219145719134403E-13, 1.999999999999988010, 79.60000000000000853 ) ) ;
#116 = CARTESIAN_POINT ( 'NONE',  ( 1.396592535537253342E-15, 3.029999999999998472, 0.4000000000000000222 ) ) ;
#117 = EDGE_LOOP ( 'NONE', ( #81 ) ) ;
#118 = VERTEX_POINT ( 'NONE', #137 ) ;
#119 = CONICAL_SURFACE ( 'NONE', #61, 2.799059892324148535, 0.5235987755982969283 ) ;
#120 = PRODUCT_DEFINITION_FORMATION_WITH_SPECIFIED_SOURCE ( 'ANY', '', #44, .NOT_KNOWN. ) ;
#121 = ORIENTED_EDGE ( 'NONE', *, *, #73, .F. ) ;
#122 = EDGE_LOOP ( 'NONE', ( #170 ) ) ;
#123 = UNCERTAINTY_MEASURE_WITH_UNIT (LENGTH_MEASURE( 1.000000000000000082E-05 ), #93, 'distance_accuracy_value', 'NONE');
#124 = CC_DESIGN_PERSON_AND_ORGANIZATION_ASSIGNMENT ( #213, #113, ( #210 ) ) ;
#125 = FACE_OUTER_BOUND ( 'NONE', #122, .T. ) ;
#126 = DIRECTION ( 'NONE',  ( -1.970423375445687985E-30, 1.000000000000000000, -5.546248737137072092E-16 ) ) ;
#127 = EDGE_CURVE ( 'NONE', #135, #135, #40, .T. ) ;
#128 = DATE_AND_TIME ( #105, #145 ) ;
#129 = FACE_OUTER_BOUND ( 'NONE', #168, .T. ) ;
#130 = PERSON_AND_ORGANIZATION ( #94, #147 ) ;
#131 = DATE_AND_TIME ( #22, #64 ) ;
#132 = CONICAL_SURFACE ( 'NONE', #143, 3.029999999999999805, 0.5235987755982931535 ) ;
#133 = CC_DESIGN_SECURITY_CLASSIFICATION ( #210, ( #120 ) ) ;
#134 = COORDINATED_UNIVERSAL_TIME_OFFSET ( 1, 0, .AHEAD. ) ;
#135 = VERTEX_POINT ( 'NONE', #12 ) ;
#136 = AXIS2_PLACEMENT_3D ( 'NONE', #38, #154, #111 ) ;
#137 = CARTESIAN_POINT ( 'NONE',  ( 2.793185071074506684E-13, 1.599999999999987876, 80.00000000000000000 ) ) ;
#138 = MECHANICAL_CONTEXT ( 'NONE', #95, 'mechanical' ) ;
#139 = ORIENTED_EDGE ( 'NONE', *, *, #235, .T. ) ;
#140 = CC_DESIGN_APPROVAL ( #47, ( #120 ) ) ;
#141 = DIRECTION ( 'NONE',  ( -1.946855565915814125E-30, 1.000000000000000000, -5.576015957057598691E-16 ) ) ;
#142 = DIRECTION ( 'NONE',  ( -3.491481338843133355E-15, -5.576015957057598691E-16, -1.000000000000000000 ) ) ;
#143 = AXIS2_PLACEMENT_3D ( 'NONE', #2, #84, #160 ) ;
#144 = AXIS2_PLACEMENT_3D ( 'NONE', #20, #178, #5 ) ;
#145 = LOCAL_TIME ( 11, 4, 33.00000000000000000, #134 ) ;
#146 = DATE_AND_TIME ( #230, #152 ) ;
#147 = ORGANIZATION ( 'UNSPECIFIED', 'UNSPECIFIED', '' ) ;
#148 = EDGE_CURVE ( 'NONE', #14, #14, #53, .T. ) ;
#149 = DATE_TIME_ROLE ( 'classification_date' ) ;
#150 = PERSON_AND_ORGANIZATION_ROLE ( 'creator' ) ;
#151 = CLOSED_SHELL ( 'NONE', ( #97, #69, #19, #27 ) ) ;
#152 = LOCAL_TIME ( 11, 4, 33.00000000000000000, #96 ) ;
#153 = PLANE ( 'NONE',  #204 ) ;
#154 = DIRECTION ( 'NONE',  ( -3.491481338843133355E-15, -5.576015957057598691E-16, -1.000000000000000000 ) ) ;
#155 = DIRECTION ( 'NONE',  ( -3.491481338843133355E-15, -5.576015957057598691E-16, -1.000000000000000000 ) ) ;
#156 = ORIENTED_EDGE ( 'NONE', *, *, #148, .T. ) ;
#157 = APPLICATION_PROTOCOL_DEFINITION ( 'international standard', 'config_control_design', 1994, #95 ) ;
#158 = EDGE_CURVE ( 'NONE', #98, #98, #92, .T. ) ;
#159 = AXIS2_PLACEMENT_3D ( 'NONE', #108, #179, #242 ) ;
#160 = DIRECTION ( 'NONE',  ( 0.0000000000000000000, 1.000000000000000000, 0.0000000000000000000 ) ) ;
#161 = APPROVAL_PERSON_ORGANIZATION ( #181, #13, #197 ) ;
#162 = ADVANCED_FACE ( 'NONE', ( #87, #174 ), #132, .T. ) ;
#163 = PERSON_AND_ORGANIZATION_ROLE ( 'creator' ) ;
#164 = ADVANCED_FACE ( 'NONE', ( #227, #42 ), #198, .T. ) ;
#165 = ORIENTED_EDGE ( 'NONE', *, *, #106, .F. ) ;
#166 =( NAMED_UNIT ( * ) PLANE_ANGLE_UNIT ( ) SI_UNIT ( $, .RADIAN. ) );
#167 = DIRECTION ( 'NONE',  ( 3.491481338843133355E-15, 5.576015957057598691E-16, 1.000000000000000000 ) ) ;
#168 = EDGE_LOOP ( 'NONE', ( #35 ) ) ;
#169 = CIRCLE ( 'NONE', #240, 2.799059892324148535 ) ;
#170 = ORIENTED_EDGE ( 'NONE', *, *, #158, .F. ) ;
#171 = PRODUCT_RELATED_PRODUCT_CATEGORY ( 'detail', '', ( #44 ) ) ;
#172 = DIRECTION ( 'NONE',  ( 1.000000000000000000, 0.0000000000000000000, 0.0000000000000000000 ) ) ;
#173 = CC_DESIGN_DATE_AND_TIME_ASSIGNMENT ( #49, #149, ( #210 ) ) ;
#174 = FACE_OUTER_BOUND ( 'NONE', #100, .T. ) ;
#175 = EDGE_LOOP ( 'NONE', ( #165 ) ) ;
#176 = AXIS2_PLACEMENT_3D ( 'NONE', #18, #225, #104 ) ;
#177 = SHAPE_DEFINITION_REPRESENTATION ( #221, #211 ) ;
#178 = DIRECTION ( 'NONE',  ( -3.491481338843133355E-15, -5.576015957057598691E-16, -1.000000000000000000 ) ) ;
#179 = DIRECTION ( 'NONE',  ( -3.491481338843133355E-15, 9.031770143711729009E-17, -1.000000000000000000 ) ) ;
#180 = DIRECTION ( 'NONE',  ( -3.491481338843133355E-15, -5.576015957057598691E-16, -1.000000000000000000 ) ) ;
#181 = PERSON_AND_ORGANIZATION ( #94, #147 ) ;
#182 = CC_DESIGN_APPROVAL ( #13, ( #210 ) ) ;
#183 = APPROVAL ( #114, 'UNSPECIFIED' ) ;
#184 = VERTEX_POINT ( 'NONE', #115 ) ;
#185 = EDGE_LOOP ( 'NONE', ( #156 ) ) ;
#186 = CIRCLE ( 'NONE', #71, 1.999999999999995337 ) ;
#187 = EDGE_LOOP ( 'NONE', ( #139 ) ) ;
#188 = PLANE ( 'NONE',  #66 ) ;
#189 = EDGE_LOOP ( 'NONE', ( #62 ) ) ;
#190 = CC_DESIGN_PERSON_AND_ORGANIZATION_ASSIGNMENT ( #229, #150, ( #120 ) ) ;
#191 = DIRECTION ( 'NONE',  ( -3.491481338843133355E-15, 9.031770143711729009E-17, -1.000000000000000000 ) ) ;
#192 = DIRECTION ( 'NONE',  ( 0.0000000000000000000, 1.000000000000000000, 0.0000000000000000000 ) ) ;
#193 = CARTESIAN_POINT ( 'NONE',  ( 2.793185071074506684E-13, -7.225416114969383207E-15, 80.00000000000000000 ) ) ;
#194 = APPROVAL_DATE_TIME ( #146, #183 ) ;
#195 = COORDINATED_UNIVERSAL_TIME_OFFSET ( 1, 0, .AHEAD. ) ;
#196 = APPROVAL_DATE_TIME ( #131, #13 ) ;
#197 = APPROVAL_ROLE ( '' ) ;
#198 = CONICAL_SURFACE ( 'NONE', #159, 1.999999999999995337, 0.7853981633974516097 ) ;
#199 = DIRECTION ( 'NONE',  ( 1.946855565915814125E-30, -1.000000000000000000, 5.576015957057598691E-16 ) ) ;
#200 = APPROVAL_STATUS ( 'not_yet_approved' ) ;
#201 = EDGE_LOOP ( 'NONE', ( #99 ) ) ;
#202 = ADVANCED_FACE ( 'NONE', ( #223 ), #188, .T. ) ;
#203 = EDGE_LOOP ( 'NONE', ( #58 ) ) ;
#204 = AXIS2_PLACEMENT_3D ( 'NONE', #30, #167, #237 ) ;
#205 = CARTESIAN_POINT ( 'NONE',  ( 4.262346683482420761E-14, -1.102584598970838871E-15, 12.20784609690827160 ) ) ;
#206 = CC_DESIGN_PERSON_AND_ORGANIZATION_ASSIGNMENT ( #130, #86, ( #120 ) ) ;
#207 = FACE_BOUND ( 'NONE', #175, .T. ) ;
#208 = CARTESIAN_POINT ( 'NONE',  ( 2.779219145719134403E-13, -7.189289034394536528E-15, 79.60000000000000853 ) ) ;
#209 = DIRECTION ( 'NONE',  ( -3.491481338843133355E-15, 9.031770143711729009E-17, -1.000000000000000000 ) ) ;
#210 = SECURITY_CLASSIFICATION ( '', '', #72 ) ;
#211 = ADVANCED_BREP_SHAPE_REPRESENTATION ( '321509', ( #228, #76, #37 ), #77 ) ;
#212 = COORDINATED_UNIVERSAL_TIME_OFFSET ( 1, 0, .AHEAD. ) ;
#213 = PERSON_AND_ORGANIZATION ( #94, #147 ) ;
#214 = DIRECTION ( 'NONE',  ( 0.0000000000000000000, 1.000000000000000000, 0.0000000000000000000 ) ) ;
#215 = APPROVAL_ROLE ( '' ) ;
#216 = PERSON_AND_ORGANIZATION ( #94, #147 ) ;
#217 = LOCAL_TIME ( 11, 4, 33.00000000000000000, #57 ) ;
#218 = PERSON_AND_ORGANIZATION ( #94, #147 ) ;
#219 = EDGE_LOOP ( 'NONE', ( #220 ) ) ;
#220 = ORIENTED_EDGE ( 'NONE', *, *, #73, .T. ) ;
#221 = PRODUCT_DEFINITION_SHAPE ( 'NONE', 'NONE',  #39 ) ;
#222 = CC_DESIGN_PERSON_AND_ORGANIZATION_ASSIGNMENT ( #216, #50, ( #44 ) ) ;
#223 = FACE_OUTER_BOUND ( 'NONE', #15, .T. ) ;
#224 = AXIS2_PLACEMENT_3D ( 'NONE', #65, #142, #126 ) ;
#225 = DIRECTION ( 'NONE',  ( -3.491481338843133355E-15, 9.031770143711729009E-17, -1.000000000000000000 ) ) ;
#226 = CALENDAR_DATE ( 2021, 26, 11 ) ;
#227 = FACE_BOUND ( 'NONE', #187, .T. ) ;
#228 = MANIFOLD_SOLID_BREP ( 'Corps-Déplacer/Copier1[1]', #4 ) ;
#229 = PERSON_AND_ORGANIZATION ( #94, #147 ) ;
#230 = CALENDAR_DATE ( 2021, 26, 11 ) ;
#231 = DIRECTION ( 'NONE',  ( -3.153425691349006731E-31, -1.000000000000000000, -9.031770143711729009E-17 ) ) ;
#232 = AXIS2_PLACEMENT_3D ( 'NONE', #193, #89, #214 ) ;
#233 = VERTEX_POINT ( 'NONE', #236 ) ;
#234 = EDGE_LOOP ( 'NONE', ( #121 ) ) ;
#235 = EDGE_CURVE ( 'NONE', #118, #118, #75, .T. ) ;
#236 = CARTESIAN_POINT ( 'NONE',  ( 0.0000000000000000000, 2.799059892324148535, 0.0000000000000000000 ) ) ;
#237 = DIRECTION ( 'NONE',  ( 1.946855565915814125E-30, -1.000000000000000000, 5.576015957057598691E-16 ) ) ;
#238 = FACE_OUTER_BOUND ( 'NONE', #189, .T. ) ;
#239 = EDGE_LOOP ( 'NONE', ( #80 ) ) ;
#240 = AXIS2_PLACEMENT_3D ( 'NONE', #79, #155, #78 ) ;
#241 = CC_DESIGN_APPROVAL ( #183, ( #39 ) ) ;
#242 = DIRECTION ( 'NONE',  ( 0.0000000000000000000, 1.000000000000000000, 0.0000000000000000000 ) ) ;
#243 = DIRECTION ( 'NONE',  ( 0.0000000000000000000, 0.0000000000000000000, 1.000000000000000000 ) ) ;
ENDSEC;
END-ISO-10303-21;
