ISO-10303-21;
HEADER;
FILE_DESCRIPTION (( 'STEP AP203' ),
    '1' );
FILE_NAME ('321508.step',
    '2021-11-26T10:04:33',
    ( '' ),
    ( '' ),
    'SwSTEP 2.0',
    'SolidWorks 2019',
    '' );
FILE_SCHEMA (( 'CONFIG_CONTROL_DESIGN' ));
ENDSEC;

DATA;
#1 = LOCAL_TIME ( 11, 4, 33.00000000000000000, #147 ) ;
#2 = DATE_TIME_ROLE ( 'classification_date' ) ;
#3 = EDGE_LOOP ( 'NONE', ( #128 ) ) ;
#4 = FACE_OUTER_BOUND ( 'NONE', #236, .T. ) ;
#5 = CONICAL_SURFACE ( 'NONE', #218, 3.024999999999999911, 0.5235987755982929315 ) ;
#6 = FACE_OUTER_BOUND ( 'NONE', #126, .T. ) ;
#7 = EDGE_LOOP ( 'NONE', ( #27 ) ) ;
#8 = CYLINDRICAL_SURFACE ( 'NONE', #238, 3.024999999999994582 ) ;
#9 = PERSON_AND_ORGANIZATION ( #93, #145 ) ;
#10 = APPROVAL_ROLE ( '' ) ;
#11 = CARTESIAN_POINT ( 'NONE',  ( 4.265370395018697003E-14, 6.804993313288935018E-15, 12.21650635094611026 ) ) ;
#12 = FACE_BOUND ( 'NONE', #7, .T. ) ;
#13 = CALENDAR_DATE ( 2021, 26, 11 ) ;
#14 = ADVANCED_FACE ( 'NONE', ( #80 ), #237, .T. ) ;
#15 = FACE_OUTER_BOUND ( 'NONE', #24, .T. ) ;
#16 = PRODUCT_DEFINITION_SHAPE ( 'NONE', 'NONE',  #215 ) ;
#17 = CARTESIAN_POINT ( 'NONE',  ( 2.793185071074506684E-13, -7.225416114969383207E-15, 80.00000000000000000 ) ) ;
#18 = PERSON_AND_ORGANIZATION ( #93, #145 ) ;
#19 = CARTESIAN_POINT ( 'NONE',  ( 2.779219145719134403E-13, -7.189289034394536528E-15, 79.60000000000000853 ) ) ;
#20 = DIRECTION ( 'NONE',  ( 3.153425691349006731E-31, 1.000000000000000000, 9.031770143711729009E-17 ) ) ;
#21 = ADVANCED_FACE ( 'NONE', ( #95 ), #216, .T. ) ;
#22 = DIRECTION ( 'NONE',  ( 1.944869218887653565E-30, -1.000000000000000000, 5.570326833057243960E-16 ) ) ;
#23 = ORIENTED_EDGE ( 'NONE', *, *, #134, .T. ) ;
#24 = EDGE_LOOP ( 'NONE', ( #68 ) ) ;
#25 = CIRCLE ( 'NONE', #101, 3.024999999999999911 ) ;
#26 = VERTEX_POINT ( 'NONE', #185 ) ;
#27 = ORIENTED_EDGE ( 'NONE', *, *, #88, .T. ) ;
#28 = AXIS2_PLACEMENT_3D ( 'NONE', #193, #32, #59 ) ;
#29 = DATE_AND_TIME ( #235, #137 ) ;
#30 = CARTESIAN_POINT ( 'NONE',  ( 4.265370395018698266E-14, -1.103366773209398364E-15, 12.21650635094611381 ) ) ;
#31 = DIRECTION ( 'NONE',  ( 1.944869218887652864E-30, -1.000000000000000000, 5.570326833057242974E-16 ) ) ;
#32 = DIRECTION ( 'NONE',  ( -3.491481338843133355E-15, -5.570326833057242974E-16, -1.000000000000000000 ) ) ;
#33 = DIRECTION ( 'NONE',  ( -3.491481338843133355E-15, -5.570326833057242974E-16, -1.000000000000000000 ) ) ;
#34 = APPROVAL ( #110, 'UNSPECIFIED' ) ;
#35 = DIRECTION ( 'NONE',  ( -3.153425691349006731E-31, -1.000000000000000000, -9.031770143711729009E-17 ) ) ;
#36 = AXIS2_PLACEMENT_3D ( 'NONE', #11, #77, #31 ) ;
#37 = PERSON_AND_ORGANIZATION ( #93, #145 ) ;
#38 = CARTESIAN_POINT ( 'NONE',  ( 4.885231259955590439E-14, -1.263712492114123682E-15, 13.99185842870425134 ) ) ;
#39 = SECURITY_CLASSIFICATION ( '', '', #194 ) ;
#40 = CALENDAR_DATE ( 2021, 26, 11 ) ;
#41 = CARTESIAN_POINT ( 'NONE',  ( 0.0000000000000000000, 0.0000000000000000000, 0.0000000000000000000 ) ) ;
#42 = ADVANCED_FACE ( 'NONE', ( #12, #54 ), #5, .T. ) ;
#43 = APPROVAL ( #127, 'UNSPECIFIED' ) ;
#44 = DIRECTION ( 'NONE',  ( 3.491481338843133355E-15, 5.570326833057242974E-16, 1.000000000000000000 ) ) ;
#45 = PERSON_AND_ORGANIZATION ( #93, #145 ) ;
#46 = EDGE_LOOP ( 'NONE', ( #174 ) ) ;
#47 = ORIENTED_EDGE ( 'NONE', *, *, #88, .F. ) ;
#48 = CALENDAR_DATE ( 2021, 26, 11 ) ;
#49 = DIRECTION ( 'NONE',  ( -3.491481338843133355E-15, 9.031770143711729009E-17, -1.000000000000000000 ) ) ;
#50 = ORIENTED_EDGE ( 'NONE', *, *, #210, .T. ) ;
#51 = EDGE_CURVE ( 'NONE', #208, #208, #135, .T. ) ;
#52 = PERSON_AND_ORGANIZATION ( #93, #145 ) ;
#53 =( LENGTH_UNIT ( ) NAMED_UNIT ( * ) SI_UNIT ( .MILLI., .METRE. ) );
#54 = FACE_OUTER_BOUND ( 'NONE', #3, .T. ) ;
#55 = APPLICATION_PROTOCOL_DEFINITION ( 'international standard', 'config_control_design', 1994, #108 ) ;
#56 = DIRECTION ( 'NONE',  ( -3.491481338843133355E-15, -5.570326833057242974E-16, -1.000000000000000000 ) ) ;
#57 = CC_DESIGN_PERSON_AND_ORGANIZATION_ASSIGNMENT ( #118, #164, ( #199 ) ) ;
#58 = COORDINATED_UNIVERSAL_TIME_OFFSET ( 1, 0, .AHEAD. ) ;
#59 = DIRECTION ( 'NONE',  ( -1.973680273586920545E-30, 1.000000000000000000, -5.555416090421596227E-16 ) ) ;
#60 = DATE_AND_TIME ( #100, #165 ) ;
#61 = CC_DESIGN_SECURITY_CLASSIFICATION ( #39, ( #199 ) ) ;
#62 = DIRECTION ( 'NONE',  ( -3.491481338843133355E-15, 9.031770143711729009E-17, -1.000000000000000000 ) ) ;
#63 = EDGE_CURVE ( 'NONE', #231, #231, #159, .T. ) ;
#64 = ADVANCED_FACE ( 'NONE', ( #15 ), #175, .T. ) ;
#65 = DIRECTION ( 'NONE',  ( -3.491481338843133355E-15, 9.031770143711729009E-17, -1.000000000000000000 ) ) ;
#66 = AXIS2_PLACEMENT_3D ( 'NONE', #162, #75, #35 ) ;
#67 = DIRECTION ( 'NONE',  ( 1.000000000000000000, 0.0000000000000000000, 0.0000000000000000000 ) ) ;
#68 = ORIENTED_EDGE ( 'NONE', *, *, #99, .F. ) ;
#69 = APPROVAL ( #139, 'UNSPECIFIED' ) ;
#70 = EDGE_LOOP ( 'NONE', ( #47 ) ) ;
#71 = CARTESIAN_POINT ( 'NONE',  ( 2.793185071074506684E-13, 1.599999999999987876, 80.00000000000000000 ) ) ;
#72 = CARTESIAN_POINT ( 'NONE',  ( 0.0000000000000000000, 0.0000000000000000000, 0.0000000000000000000 ) ) ;
#73 = CARTESIAN_POINT ( 'NONE',  ( 4.885231259955590439E-14, 1.999999999999990452, 13.99185842870425134 ) ) ;
#74 = AXIS2_PLACEMENT_3D ( 'NONE', #17, #178, #196 ) ;
#75 = DIRECTION ( 'NONE',  ( 3.491481338843133355E-15, -9.031770143711729009E-17, 1.000000000000000000 ) ) ;
#76 = AXIS2_PLACEMENT_3D ( 'NONE', #122, #85, #183 ) ;
#77 = DIRECTION ( 'NONE',  ( 3.491481338843133355E-15, 5.570326833057242974E-16, 1.000000000000000000 ) ) ;
#78 = FACE_OUTER_BOUND ( 'NONE', #70, .T. ) ;
#79 = CYLINDRICAL_SURFACE ( 'NONE', #170, 1.999999999999993561 ) ;
#80 = FACE_OUTER_BOUND ( 'NONE', #168, .T. ) ;
#81 = COORDINATED_UNIVERSAL_TIME_OFFSET ( 1, 0, .AHEAD. ) ;
#82 = AXIS2_PLACEMENT_3D ( 'NONE', #19, #62, #119 ) ;
#83 = PERSON_AND_ORGANIZATION_ROLE ( 'classification_officer' ) ;
#84 = CARTESIAN_POINT ( 'NONE',  ( 5.434081080309788840E-30, 8.669560200109168095E-31, 1.556382679138223863E-15 ) ) ;
#85 = DIRECTION ( 'NONE',  ( -3.491481338843133355E-15, 9.031770143711729009E-17, -1.000000000000000000 ) ) ;
#86 = MANIFOLD_SOLID_BREP ( 'Corps-Déplacer/Copier1[2]', #243 ) ;
#87 = CARTESIAN_POINT ( 'NONE',  ( 4.265370395018698266E-14, 3.024999999999998579, 12.21650635094611381 ) ) ;
#88 = EDGE_CURVE ( 'NONE', #167, #167, #204, .T. ) ;
#89 = CC_DESIGN_DATE_AND_TIME_ASSIGNMENT ( #200, #219, ( #215 ) ) ;
#90 = MANIFOLD_SOLID_BREP ( 'Corps-Déplacer/Copier1[1]', #148 ) ;
#91 = CARTESIAN_POINT ( 'NONE',  ( 1.396592535537253342E-15, 3.024999999999998579, 0.4000000000000000222 ) ) ;
#92 = PRODUCT_RELATED_PRODUCT_CATEGORY ( 'detail', '', ( #132 ) ) ;
#93 = PERSON ( 'UNSPECIFIED', 'UNSPECIFIED', 'UNSPECIFIED', ('UNSPECIFIED'), ('UNSPECIFIED'), ('UNSPECIFIED') ) ;
#94 = COORDINATED_UNIVERSAL_TIME_OFFSET ( 1, 0, .AHEAD. ) ;
#95 = FACE_OUTER_BOUND ( 'NONE', #125, .T. ) ;
#96 = UNCERTAINTY_MEASURE_WITH_UNIT (LENGTH_MEASURE( 1.000000000000000082E-05 ), #53, 'distance_accuracy_value', 'NONE');
#97 = AXIS2_PLACEMENT_3D ( 'NONE', #157, #241, #173 ) ;
#98 = DATE_AND_TIME ( #40, #107 ) ;
#99 = EDGE_CURVE ( 'NONE', #234, #234, #151, .T. ) ;
#100 = CALENDAR_DATE ( 2021, 26, 11 ) ;
#101 = AXIS2_PLACEMENT_3D ( 'NONE', #104, #49, #212 ) ;
#102 = FACE_OUTER_BOUND ( 'NONE', #186, .T. ) ;
#103 = APPROVAL_ROLE ( '' ) ;
#104 = CARTESIAN_POINT ( 'NONE',  ( 4.265370395018698266E-14, -1.103366773209398364E-15, 12.21650635094611381 ) ) ;
#105 = EDGE_LOOP ( 'NONE', ( #229 ) ) ;
#106 = APPROVAL_ROLE ( '' ) ;
#107 = LOCAL_TIME ( 11, 4, 33.00000000000000000, #81 ) ;
#108 = APPLICATION_CONTEXT ( 'configuration controlled 3d designs of mechanical parts and assemblies' ) ;
#109 = DIRECTION ( 'NONE',  ( 3.153425691349006731E-31, 1.000000000000000000, 9.031770143711729009E-17 ) ) ;
#110 = APPROVAL_STATUS ( 'not_yet_approved' ) ;
#111 = DIRECTION ( 'NONE',  ( -2.037347379186503170E-30, 1.000000000000000000, -5.734623061080370183E-16 ) ) ;
#112 = VERTEX_POINT ( 'NONE', #239 ) ;
#113 = APPROVAL_DATE_TIME ( #29, #34 ) ;
#114 = DIRECTION ( 'NONE',  ( -3.491481338843133355E-15, 9.031770143711729009E-17, -1.000000000000000000 ) ) ;
#115 = CIRCLE ( 'NONE', #97, 2.794059892324148642 ) ;
#116 = APPROVAL_DATE_TIME ( #195, #43 ) ;
#117 = FACE_OUTER_BOUND ( 'NONE', #105, .T. ) ;
#118 = PERSON_AND_ORGANIZATION ( #93, #145 ) ;
#119 = DIRECTION ( 'NONE',  ( 0.0000000000000000000, 1.000000000000000000, 0.0000000000000000000 ) ) ;
#120 = COORDINATED_UNIVERSAL_TIME_OFFSET ( 1, 0, .AHEAD. ) ;
#121 = AXIS2_PLACEMENT_3D ( 'NONE', #197, #65, #20 ) ;
#122 = CARTESIAN_POINT ( 'NONE',  ( 2.779219145719134403E-13, -7.189289034394536528E-15, 79.60000000000000853 ) ) ;
#123 = ADVANCED_FACE ( 'NONE', ( #211, #117 ), #129, .T. ) ;
#124 = ORIENTED_EDGE ( 'NONE', *, *, #210, .F. ) ;
#125 = EDGE_LOOP ( 'NONE', ( #50 ) ) ;
#126 = EDGE_LOOP ( 'NONE', ( #181 ) ) ;
#127 = APPROVAL_STATUS ( 'not_yet_approved' ) ;
#128 = ORIENTED_EDGE ( 'NONE', *, *, #134, .F. ) ;
#129 = CONICAL_SURFACE ( 'NONE', #82, 1.999999999999995337, 0.7853981633974516097 ) ;
#130 = DIRECTION ( 'NONE',  ( 0.0000000000000000000, 1.000000000000000000, 0.0000000000000000000 ) ) ;
#131 = CARTESIAN_POINT ( 'NONE',  ( -2.717040540154894420E-30, 2.794059892324148642, -7.781913395691119314E-16 ) ) ;
#132 = PRODUCT ( '321508', '321508', '', ( #138 ) ) ;
#133 = ORIENTED_EDGE ( 'NONE', *, *, #99, .T. ) ;
#134 = EDGE_CURVE ( 'NONE', #149, #149, #25, .T. ) ;
#135 = CIRCLE ( 'NONE', #144, 3.024999999999991473 ) ;
#136 =( NAMED_UNIT ( * ) PLANE_ANGLE_UNIT ( ) SI_UNIT ( $, .RADIAN. ) );
#137 = LOCAL_TIME ( 11, 4, 33.00000000000000000, #94 ) ;
#138 = MECHANICAL_CONTEXT ( 'NONE', #220, 'mechanical' ) ;
#139 = APPROVAL_STATUS ( 'not_yet_approved' ) ;
#140 = CONICAL_SURFACE ( 'NONE', #214, 2.794059892324148642, 0.5235987755982969283 ) ;
#141 = ADVANCED_FACE ( 'NONE', ( #4 ), #226, .T. ) ;
#142 = FACE_BOUND ( 'NONE', #189, .T. ) ;
#143 = CC_DESIGN_PERSON_AND_ORGANIZATION_ASSIGNMENT ( #180, #83, ( #39 ) ) ;
#144 = AXIS2_PLACEMENT_3D ( 'NONE', #221, #205, #111 ) ;
#145 = ORGANIZATION ( 'UNSPECIFIED', 'UNSPECIFIED', '' ) ;
#146 = APPROVAL_DATE_TIME ( #98, #69 ) ;
#147 = COORDINATED_UNIVERSAL_TIME_OFFSET ( 1, 0, .AHEAD. ) ;
#148 = CLOSED_SHELL ( 'NONE', ( #64, #123, #242, #42, #141 ) ) ;
#149 = VERTEX_POINT ( 'NONE', #202 ) ;
#150 = ORIENTED_EDGE ( 'NONE', *, *, #51, .F. ) ;
#151 = CIRCLE ( 'NONE', #74, 1.599999999999994982 ) ;
#152 = APPROVAL_PERSON_ORGANIZATION ( #9, #43, #106 ) ;
#153 = EDGE_LOOP ( 'NONE', ( #133 ) ) ;
#154 = DIRECTION ( 'NONE',  ( -1.944869218887653214E-30, 1.000000000000000000, -5.570326833057242974E-16 ) ) ;
#155 = DIRECTION ( 'NONE',  ( -3.491481338843133355E-15, 9.031770143711729009E-17, -1.000000000000000000 ) ) ;
#156 = DIRECTION ( 'NONE',  ( -1.944869218887652864E-30, 1.000000000000000000, -5.570326833057242974E-16 ) ) ;
#157 = CARTESIAN_POINT ( 'NONE',  ( 5.434081080309788840E-30, 8.669560200109168095E-31, 1.556382679138223863E-15 ) ) ;
#158 = DIRECTION ( 'NONE',  ( -3.491481338843133355E-15, 9.031770143711729009E-17, -1.000000000000000000 ) ) ;
#159 = CIRCLE ( 'NONE', #28, 3.024999999999998135 ) ;
#160 = APPLICATION_PROTOCOL_DEFINITION ( 'international standard', 'config_control_design', 1994, #220 ) ;
#161 = LOCAL_TIME ( 11, 4, 33.00000000000000000, #58 ) ;
#162 = CARTESIAN_POINT ( 'NONE',  ( 2.793185071074506684E-13, -7.225416114969383207E-15, 80.00000000000000000 ) ) ;
#163 = DIRECTION ( 'NONE',  ( 0.0000000000000000000, 0.0000000000000000000, 1.000000000000000000 ) ) ;
#164 = PERSON_AND_ORGANIZATION_ROLE ( 'design_supplier' ) ;
#165 = LOCAL_TIME ( 11, 4, 33.00000000000000000, #120 ) ;
#166 = EDGE_LOOP ( 'NONE', ( #184 ) ) ;
#167 = VERTEX_POINT ( 'NONE', #73 ) ;
#168 = EDGE_LOOP ( 'NONE', ( #150 ) ) ;
#169 = DESIGN_CONTEXT ( 'detailed design', #108, 'design' ) ;
#170 = AXIS2_PLACEMENT_3D ( 'NONE', #41, #155, #109 ) ;
#171 = CC_DESIGN_DATE_AND_TIME_ASSIGNMENT ( #60, #2, ( #39 ) ) ;
#172 = ADVANCED_FACE ( 'NONE', ( #102, #142 ), #140, .T. ) ;
#173 = DIRECTION ( 'NONE',  ( -1.944869218887653565E-30, 1.000000000000000000, -5.570326833057243960E-16 ) ) ;
#174 = ORIENTED_EDGE ( 'NONE', *, *, #63, .F. ) ;
#175 = PLANE ( 'NONE',  #66 ) ;
#176 = SHAPE_DEFINITION_REPRESENTATION ( #16, #209 ) ;
#177 = CARTESIAN_POINT ( 'NONE',  ( 0.0000000000000000000, 0.0000000000000000000, 0.0000000000000000000 ) ) ;
#178 = DIRECTION ( 'NONE',  ( -3.491481338843133355E-15, 9.031770143711729009E-17, -1.000000000000000000 ) ) ;
#179 = CC_DESIGN_PERSON_AND_ORGANIZATION_ASSIGNMENT ( #223, #192, ( #215 ) ) ;
#180 = PERSON_AND_ORGANIZATION ( #93, #145 ) ;
#181 = ORIENTED_EDGE ( 'NONE', *, *, #51, .T. ) ;
#182 =( GEOMETRIC_REPRESENTATION_CONTEXT ( 3 ) GLOBAL_UNCERTAINTY_ASSIGNED_CONTEXT ( ( #96 ) ) GLOBAL_UNIT_ASSIGNED_CONTEXT ( ( #53, #136, #230 ) ) REPRESENTATION_CONTEXT ( 'NONE', 'WORKASPACE' ) );
#183 = DIRECTION ( 'NONE',  ( 0.0000000000000000000, 1.000000000000000000, 0.0000000000000000000 ) ) ;
#184 = ORIENTED_EDGE ( 'NONE', *, *, #187, .T. ) ;
#185 = CARTESIAN_POINT ( 'NONE',  ( 2.779219145719134403E-13, 1.999999999999988010, 79.60000000000000853 ) ) ;
#186 = EDGE_LOOP ( 'NONE', ( #232 ) ) ;
#187 = EDGE_CURVE ( 'NONE', #26, #26, #190, .T. ) ;
#188 = APPROVAL_PERSON_ORGANIZATION ( #37, #34, #10 ) ;
#189 = EDGE_LOOP ( 'NONE', ( #124 ) ) ;
#190 = CIRCLE ( 'NONE', #76, 1.999999999999995337 ) ;
#191 = DIRECTION ( 'NONE',  ( 0.0000000000000000000, 1.000000000000000000, 0.0000000000000000000 ) ) ;
#192 = PERSON_AND_ORGANIZATION_ROLE ( 'creator' ) ;
#193 = CARTESIAN_POINT ( 'NONE',  ( 1.396592535537259259E-15, 2.228130733222906656E-16, 0.4000000000000016875 ) ) ;
#194 = SECURITY_CLASSIFICATION_LEVEL ( 'unclassified' ) ;
#195 = DATE_AND_TIME ( #13, #161 ) ;
#196 = DIRECTION ( 'NONE',  ( 0.0000000000000000000, 1.000000000000000000, 0.0000000000000000000 ) ) ;
#197 = CARTESIAN_POINT ( 'NONE',  ( 4.265370395018697003E-14, 3.024999999999998579, 12.21650635094611026 ) ) ;
#198 = APPROVAL_PERSON_ORGANIZATION ( #45, #69, #103 ) ;
#199 = PRODUCT_DEFINITION_FORMATION_WITH_SPECIFIED_SOURCE ( 'ANY', '', #132, .NOT_KNOWN. ) ;
#200 = DATE_AND_TIME ( #48, #1 ) ;
#201 = CC_DESIGN_PERSON_AND_ORGANIZATION_ASSIGNMENT ( #52, #217, ( #132 ) ) ;
#202 = CARTESIAN_POINT ( 'NONE',  ( 4.265370395018698266E-14, 3.024999999999998579, 12.21650635094611381 ) ) ;
#203 = CC_DESIGN_PERSON_AND_ORGANIZATION_ASSIGNMENT ( #18, #224, ( #199 ) ) ;
#204 = CIRCLE ( 'NONE', #227, 1.999999999999991784 ) ;
#205 = DIRECTION ( 'NONE',  ( -3.491481338843133355E-15, -5.570326833057242974E-16, -1.000000000000000000 ) ) ;
#206 = ADVANCED_FACE ( 'NONE', ( #6, #213 ), #8, .T. ) ;
#207 = AXIS2_PLACEMENT_3D ( 'NONE', #177, #163, #67 ) ;
#208 = VERTEX_POINT ( 'NONE', #87 ) ;
#209 = ADVANCED_BREP_SHAPE_REPRESENTATION ( '321508', ( #90, #86, #207 ), #182 ) ;
#210 = EDGE_CURVE ( 'NONE', #112, #112, #115, .T. ) ;
#211 = FACE_BOUND ( 'NONE', #153, .T. ) ;
#212 = DIRECTION ( 'NONE',  ( 0.0000000000000000000, 1.000000000000000000, 0.0000000000000000000 ) ) ;
#213 = FACE_OUTER_BOUND ( 'NONE', #46, .T. ) ;
#214 = AXIS2_PLACEMENT_3D ( 'NONE', #84, #44, #22 ) ;
#215 = PRODUCT_DEFINITION ( 'UNKNOWN', '', #199, #169 ) ;
#216 = PLANE ( 'NONE',  #233 ) ;
#217 = PERSON_AND_ORGANIZATION_ROLE ( 'design_owner' ) ;
#218 = AXIS2_PLACEMENT_3D ( 'NONE', #30, #114, #130 ) ;
#219 = DATE_TIME_ROLE ( 'creation_date' ) ;
#220 = APPLICATION_CONTEXT ( 'configuration controlled 3d designs of mechanical parts and assemblies' ) ;
#221 = CARTESIAN_POINT ( 'NONE',  ( 4.265370395018698897E-14, 6.804993313288938173E-15, 12.21650635094611559 ) ) ;
#222 = CC_DESIGN_APPROVAL ( #34, ( #215 ) ) ;
#223 = PERSON_AND_ORGANIZATION ( #93, #145 ) ;
#224 = PERSON_AND_ORGANIZATION_ROLE ( 'creator' ) ;
#225 = CC_DESIGN_APPROVAL ( #43, ( #199 ) ) ;
#226 = PLANE ( 'NONE',  #121 ) ;
#227 = AXIS2_PLACEMENT_3D ( 'NONE', #38, #158, #191 ) ;
#228 = CC_DESIGN_APPROVAL ( #69, ( #39 ) ) ;
#229 = ORIENTED_EDGE ( 'NONE', *, *, #187, .F. ) ;
#230 =( NAMED_UNIT ( * ) SI_UNIT ( $, .STERADIAN. ) SOLID_ANGLE_UNIT ( ) );
#231 = VERTEX_POINT ( 'NONE', #91 ) ;
#232 = ORIENTED_EDGE ( 'NONE', *, *, #63, .T. ) ;
#233 = AXIS2_PLACEMENT_3D ( 'NONE', #131, #56, #156 ) ;
#234 = VERTEX_POINT ( 'NONE', #71 ) ;
#235 = CALENDAR_DATE ( 2021, 26, 11 ) ;
#236 = EDGE_LOOP ( 'NONE', ( #23 ) ) ;
#237 = PLANE ( 'NONE',  #36 ) ;
#238 = AXIS2_PLACEMENT_3D ( 'NONE', #72, #33, #154 ) ;
#239 = CARTESIAN_POINT ( 'NONE',  ( 6.842277657836020854E-46, 2.794059892324148642, 0.0000000000000000000 ) ) ;
#240 = FACE_OUTER_BOUND ( 'NONE', #166, .T. ) ;
#241 = DIRECTION ( 'NONE',  ( -3.491481338843133355E-15, -5.570326833057242974E-16, -1.000000000000000000 ) ) ;
#242 = ADVANCED_FACE ( 'NONE', ( #240, #78 ), #79, .T. ) ;
#243 = CLOSED_SHELL ( 'NONE', ( #14, #206, #172, #21 ) ) ;
ENDSEC;
END-ISO-10303-21;
