ISO-10303-21;
HEADER;
FILE_DESCRIPTION (( 'STEP AP203' ),
    '1' );
FILE_NAME ('321507.step',
    '2021-11-26T10:04:32',
    ( '' ),
    ( '' ),
    'SwSTEP 2.0',
    'SolidWorks 2019',
    '' );
FILE_SCHEMA (( 'CONFIG_CONTROL_DESIGN' ));
ENDSEC;

DATA;
#1 = AXIS2_PLACEMENT_3D ( 'NONE', #33, #198, #243 ) ;
#2 = DIRECTION ( 'NONE',  ( -3.153425691349006731E-31, -1.000000000000000000, -9.031770143711729009E-17 ) ) ;
#3 = PERSON_AND_ORGANIZATION ( #85, #53 ) ;
#4 = LOCAL_TIME ( 11, 4, 32.00000000000000000, #30 ) ;
#5 = CARTESIAN_POINT ( 'NONE',  ( 0.0000000000000000000, 0.0000000000000000000, 0.0000000000000000000 ) ) ;
#6 = VERTEX_POINT ( 'NONE', #186 ) ;
#7 = EDGE_LOOP ( 'NONE', ( #50 ) ) ;
#8 = DIRECTION ( 'NONE',  ( -3.491481338843133355E-15, -5.564645769357518922E-16, -1.000000000000000000 ) ) ;
#9 = CIRCLE ( 'NONE', #1, 2.789059892324149192 ) ;
#10 = ORIENTED_EDGE ( 'NONE', *, *, #55, .F. ) ;
#11 = DIRECTION ( 'NONE',  ( 0.0000000000000000000, 1.000000000000000000, 0.0000000000000000000 ) ) ;
#12 = DIRECTION ( 'NONE',  ( -3.491481338843133355E-15, 9.031770143711729009E-17, -1.000000000000000000 ) ) ;
#13 = PRODUCT_DEFINITION_SHAPE ( 'NONE', 'NONE',  #182 ) ;
#14 = DIRECTION ( 'NONE',  ( 3.491481338843133355E-15, 5.564645769357518922E-16, 1.000000000000000000 ) ) ;
#15 = DIRECTION ( 'NONE',  ( -1.913175441444275177E-30, 1.000000000000000000, -5.564613799180571936E-16 ) ) ;
#16 = ADVANCED_FACE ( 'NONE', ( #185 ), #223, .T. ) ;
#17 = CALENDAR_DATE ( 2021, 26, 11 ) ;
#18 = CONICAL_SURFACE ( 'NONE', #95, 3.020000000000000018, 0.5235987755982931535 ) ;
#19 = CARTESIAN_POINT ( 'NONE',  ( 5.418824542467780898E-30, 8.636402758241634022E-31, 1.552013033030631425E-15 ) ) ;
#20 = CARTESIAN_POINT ( 'NONE',  ( 0.0000000000000000000, 0.0000000000000000000, 0.0000000000000000000 ) ) ;
#21 = COORDINATED_UNIVERSAL_TIME_OFFSET ( 1, 0, .AHEAD. ) ;
#22 = APPROVAL_ROLE ( '' ) ;
#23 = CC_DESIGN_APPROVAL ( #216, ( #149 ) ) ;
#24 = CC_DESIGN_PERSON_AND_ORGANIZATION_ASSIGNMENT ( #154, #197, ( #149 ) ) ;
#25 = MECHANICAL_CONTEXT ( 'NONE', #112, 'mechanical' ) ;
#26 = AXIS2_PLACEMENT_3D ( 'NONE', #19, #136, #58 ) ;
#27 = PERSON_AND_ORGANIZATION_ROLE ( 'creator' ) ;
#28 = VERTEX_POINT ( 'NONE', #70 ) ;
#29 = EDGE_LOOP ( 'NONE', ( #10 ) ) ;
#30 = COORDINATED_UNIVERSAL_TIME_OFFSET ( 1, 0, .AHEAD. ) ;
#31 = CONICAL_SURFACE ( 'NONE', #160, 1.999999999999995337, 0.7853981633974516097 ) ;
#32 = ORIENTED_EDGE ( 'NONE', *, *, #214, .F. ) ;
#33 = CARTESIAN_POINT ( 'NONE',  ( 5.418824542467780898E-30, 8.636402758241634022E-31, 1.552013033030631425E-15 ) ) ;
#34 = ORIENTED_EDGE ( 'NONE', *, *, #105, .T. ) ;
#35 = SHAPE_DEFINITION_REPRESENTATION ( #13, #224 ) ;
#36 = ORIENTED_EDGE ( 'NONE', *, *, #211, .T. ) ;
#37 = EDGE_CURVE ( 'NONE', #109, #109, #99, .T. ) ;
#38 = PERSON_AND_ORGANIZATION_ROLE ( 'design_supplier' ) ;
#39 = LOCAL_TIME ( 11, 4, 32.00000000000000000, #165 ) ;
#40 = CARTESIAN_POINT ( 'NONE',  ( 2.779219145719134403E-13, -7.189289034394536528E-15, 79.60000000000000853 ) ) ;
#41 = DIRECTION ( 'NONE',  ( 0.0000000000000000000, 1.000000000000000000, 0.0000000000000000000 ) ) ;
#42 = DIRECTION ( 'NONE',  ( -3.491481338843133355E-15, -5.564645769357518922E-16, -1.000000000000000000 ) ) ;
#43 = SECURITY_CLASSIFICATION_LEVEL ( 'unclassified' ) ;
#44 = ADVANCED_FACE ( 'NONE', ( #56, #97 ), #18, .T. ) ;
#45 = APPROVAL ( #147, 'UNSPECIFIED' ) ;
#46 = PERSON_AND_ORGANIZATION ( #85, #53 ) ;
#47 = AXIS2_PLACEMENT_3D ( 'NONE', #140, #42, #119 ) ;
#48 = ORIENTED_EDGE ( 'NONE', *, *, #51, .F. ) ;
#49 = PERSON_AND_ORGANIZATION_ROLE ( 'creator' ) ;
#50 = ORIENTED_EDGE ( 'NONE', *, *, #55, .T. ) ;
#51 = EDGE_CURVE ( 'NONE', #166, #166, #196, .T. ) ;
#52 = ORIENTED_EDGE ( 'NONE', *, *, #37, .F. ) ;
#53 = ORGANIZATION ( 'UNSPECIFIED', 'UNSPECIFIED', '' ) ;
#54 = EDGE_LOOP ( 'NONE', ( #152 ) ) ;
#55 = EDGE_CURVE ( 'NONE', #65, #65, #64, .T. ) ;
#56 = FACE_BOUND ( 'NONE', #239, .T. ) ;
#57 = DATE_AND_TIME ( #17, #139 ) ;
#58 = DIRECTION ( 'NONE',  ( 1.942885686098416302E-30, -1.000000000000000000, 5.564645769357518922E-16 ) ) ;
#59 = CYLINDRICAL_SURFACE ( 'NONE', #47, 3.019999999999995133 ) ;
#60 = DIRECTION ( 'NONE',  ( 0.0000000000000000000, 1.000000000000000000, 0.0000000000000000000 ) ) ;
#61 = FACE_OUTER_BOUND ( 'NONE', #75, .T. ) ;
#62 = EDGE_CURVE ( 'NONE', #132, #132, #114, .T. ) ;
#63 = ADVANCED_FACE ( 'NONE', ( #61, #212 ), #120, .T. ) ;
#64 = CIRCLE ( 'NONE', #238, 3.020000000000000018 ) ;
#65 = VERTEX_POINT ( 'NONE', #88 ) ;
#66 = CALENDAR_DATE ( 2021, 26, 11 ) ;
#67 = DIRECTION ( 'NONE',  ( 0.0000000000000000000, 0.0000000000000000000, 1.000000000000000000 ) ) ;
#68 = EDGE_LOOP ( 'NONE', ( #192 ) ) ;
#69 = CC_DESIGN_APPROVAL ( #45, ( #221 ) ) ;
#70 = CARTESIAN_POINT ( 'NONE',  ( 4.268394106554975770E-14, 3.019999999999998685, 12.22516660498395957 ) ) ;
#71 = CARTESIAN_POINT ( 'NONE',  ( 2.779219145719134403E-13, 1.999999999999988010, 79.60000000000000853 ) ) ;
#72 = CARTESIAN_POINT ( 'NONE',  ( 2.779219145719134403E-13, -7.189289034394536528E-15, 79.60000000000000853 ) ) ;
#73 = MANIFOLD_SOLID_BREP ( 'Corps-Déplacer/Copier1[2]', #193 ) ;
#74 = EDGE_LOOP ( 'NONE', ( #34 ) ) ;
#75 = EDGE_LOOP ( 'NONE', ( #79 ) ) ;
#76 = CALENDAR_DATE ( 2021, 26, 11 ) ;
#77 = CONICAL_SURFACE ( 'NONE', #26, 2.789059892324149192, 0.5235987755982969283 ) ;
#78 = FACE_BOUND ( 'NONE', #54, .T. ) ;
#79 = ORIENTED_EDGE ( 'NONE', *, *, #51, .T. ) ;
#80 = FACE_OUTER_BOUND ( 'NONE', #68, .T. ) ;
#81 = PERSON_AND_ORGANIZATION ( #85, #53 ) ;
#82 = DIRECTION ( 'NONE',  ( 3.153425691349006731E-31, 1.000000000000000000, 9.031770143711729009E-17 ) ) ;
#83 = PLANE ( 'NONE',  #128 ) ;
#84 = AXIS2_PLACEMENT_3D ( 'NONE', #72, #157, #141 ) ;
#85 = PERSON ( 'UNSPECIFIED', 'UNSPECIFIED', 'UNSPECIFIED', ('UNSPECIFIED'), ('UNSPECIFIED'), ('UNSPECIFIED') ) ;
#86 = DIRECTION ( 'NONE',  ( 1.000000000000000000, 0.0000000000000000000, 0.0000000000000000000 ) ) ;
#87 = LOCAL_TIME ( 11, 4, 32.00000000000000000, #144 ) ;
#88 = CARTESIAN_POINT ( 'NONE',  ( 4.268394106554975770E-14, 3.019999999999998685, 12.22516660498395957 ) ) ;
#89 = APPLICATION_PROTOCOL_DEFINITION ( 'international standard', 'config_control_design', 1994, #112 ) ;
#90 = CARTESIAN_POINT ( 'NONE',  ( 2.793185071074506684E-13, 1.599999999999987876, 80.00000000000000000 ) ) ;
#91 = CARTESIAN_POINT ( 'NONE',  ( 6.842277657836020854E-46, 2.789059892324149192, 0.0000000000000000000 ) ) ;
#92 = DIRECTION ( 'NONE',  ( -2.040720470873897703E-30, 1.000000000000000000, -5.744117470121893018E-16 ) ) ;
#93 = ADVANCED_FACE ( 'NONE', ( #183 ), #129, .T. ) ;
#94 = CC_DESIGN_DATE_AND_TIME_ASSIGNMENT ( #233, #236, ( #182 ) ) ;
#95 = AXIS2_PLACEMENT_3D ( 'NONE', #137, #208, #130 ) ;
#96 = FACE_OUTER_BOUND ( 'NONE', #116, .T. ) ;
#97 = FACE_OUTER_BOUND ( 'NONE', #29, .T. ) ;
#98 = DIRECTION ( 'NONE',  ( -3.491481338843133355E-15, 9.031770143711729009E-17, -1.000000000000000000 ) ) ;
#99 = CIRCLE ( 'NONE', #159, 1.599999999999994982 ) ;
#100 = DESIGN_CONTEXT ( 'detailed design', #122, 'design' ) ;
#101 = CARTESIAN_POINT ( 'NONE',  ( 4.885231259955590439E-14, -1.263712492114123682E-15, 13.99185842870425134 ) ) ;
#102 = AXIS2_PLACEMENT_3D ( 'NONE', #231, #170, #15 ) ;
#103 = FACE_OUTER_BOUND ( 'NONE', #146, .T. ) ;
#104 = DIRECTION ( 'NONE',  ( 0.0000000000000000000, 1.000000000000000000, 0.0000000000000000000 ) ) ;
#105 = EDGE_CURVE ( 'NONE', #6, #6, #242, .T. ) ;
#106 = APPROVAL_PERSON_ORGANIZATION ( #123, #216, #22 ) ;
#107 = DIRECTION ( 'NONE',  ( 3.491481338843133355E-15, -9.031770143711729009E-17, 1.000000000000000000 ) ) ;
#108 = PERSON_AND_ORGANIZATION ( #85, #53 ) ;
#109 = VERTEX_POINT ( 'NONE', #90 ) ;
#110 =( GEOMETRIC_REPRESENTATION_CONTEXT ( 3 ) GLOBAL_UNCERTAINTY_ASSIGNED_CONTEXT ( ( #158 ) ) GLOBAL_UNIT_ASSIGNED_CONTEXT ( ( #164, #168, #232 ) ) REPRESENTATION_CONTEXT ( 'NONE', 'WORKASPACE' ) );
#111 = CARTESIAN_POINT ( 'NONE',  ( 2.793185071074506684E-13, -7.225416114969383207E-15, 80.00000000000000000 ) ) ;
#112 = APPLICATION_CONTEXT ( 'configuration controlled 3d designs of mechanical parts and assemblies' ) ;
#113 = CARTESIAN_POINT ( 'NONE',  ( 4.268394106554976401E-14, 3.019999999999998685, 12.22516660498396135 ) ) ;
#114 = CIRCLE ( 'NONE', #184, 1.999999999999991784 ) ;
#115 = EDGE_LOOP ( 'NONE', ( #52 ) ) ;
#116 = EDGE_LOOP ( 'NONE', ( #36 ) ) ;
#117 = DIRECTION ( 'NONE',  ( -3.491481338843133355E-15, -5.564645769357518922E-16, -1.000000000000000000 ) ) ;
#118 = FACE_OUTER_BOUND ( 'NONE', #74, .T. ) ;
#119 = DIRECTION ( 'NONE',  ( -1.942885686098416652E-30, 1.000000000000000000, -5.564645769357517936E-16 ) ) ;
#120 = CYLINDRICAL_SURFACE ( 'NONE', #177, 1.999999999999993561 ) ;
#121 = AXIS2_PLACEMENT_3D ( 'NONE', #111, #107, #2 ) ;
#122 = APPLICATION_CONTEXT ( 'configuration controlled 3d designs of mechanical parts and assemblies' ) ;
#123 = PERSON_AND_ORGANIZATION ( #85, #53 ) ;
#124 = CC_DESIGN_DATE_AND_TIME_ASSIGNMENT ( #180, #209, ( #149 ) ) ;
#125 = APPLICATION_PROTOCOL_DEFINITION ( 'international standard', 'config_control_design', 1994, #122 ) ;
#126 = PERSON_AND_ORGANIZATION_ROLE ( 'design_owner' ) ;
#127 = PERSON_AND_ORGANIZATION ( #85, #53 ) ;
#128 = AXIS2_PLACEMENT_3D ( 'NONE', #148, #117, #220 ) ;
#129 = PLANE ( 'NONE',  #172 ) ;
#130 = DIRECTION ( 'NONE',  ( 0.0000000000000000000, 1.000000000000000000, 0.0000000000000000000 ) ) ;
#131 = APPROVAL_ROLE ( '' ) ;
#132 = VERTEX_POINT ( 'NONE', #235 ) ;
#133 = CC_DESIGN_APPROVAL ( #138, ( #182 ) ) ;
#134 = EDGE_LOOP ( 'NONE', ( #206 ) ) ;
#135 = PERSON_AND_ORGANIZATION ( #85, #53 ) ;
#136 = DIRECTION ( 'NONE',  ( 3.491481338843133355E-15, 5.564645769357518922E-16, 1.000000000000000000 ) ) ;
#137 = CARTESIAN_POINT ( 'NONE',  ( 4.268394106554975770E-14, -1.104148947447958054E-15, 12.22516660498395957 ) ) ;
#138 = APPROVAL ( #218, 'UNSPECIFIED' ) ;
#139 = LOCAL_TIME ( 11, 4, 32.00000000000000000, #215 ) ;
#140 = CARTESIAN_POINT ( 'NONE',  ( 0.0000000000000000000, 0.0000000000000000000, 0.0000000000000000000 ) ) ;
#141 = DIRECTION ( 'NONE',  ( 0.0000000000000000000, 1.000000000000000000, 0.0000000000000000000 ) ) ;
#142 = ADVANCED_FACE ( 'NONE', ( #118, #78 ), #77, .T. ) ;
#143 = CC_DESIGN_PERSON_AND_ORGANIZATION_ASSIGNMENT ( #46, #126, ( #163 ) ) ;
#144 = COORDINATED_UNIVERSAL_TIME_OFFSET ( 1, 0, .AHEAD. ) ;
#145 = AXIS2_PLACEMENT_3D ( 'NONE', #5, #67, #86 ) ;
#146 = EDGE_LOOP ( 'NONE', ( #48 ) ) ;
#147 = APPROVAL_STATUS ( 'not_yet_approved' ) ;
#148 = CARTESIAN_POINT ( 'NONE',  ( -2.709412271233890449E-30, 2.789059892324149192, -7.760065165153157125E-16 ) ) ;
#149 = SECURITY_CLASSIFICATION ( '', '', #43 ) ;
#150 = ORIENTED_EDGE ( 'NONE', *, *, #62, .T. ) ;
#151 = APPROVAL_DATE_TIME ( #178, #138 ) ;
#152 = ORIENTED_EDGE ( 'NONE', *, *, #211, .F. ) ;
#153 = DIRECTION ( 'NONE',  ( -3.491481338843133355E-15, 9.031770143711729009E-17, -1.000000000000000000 ) ) ;
#154 = PERSON_AND_ORGANIZATION ( #85, #53 ) ;
#155 = APPROVAL_PERSON_ORGANIZATION ( #3, #138, #230 ) ;
#156 = MANIFOLD_SOLID_BREP ( 'Corps-Déplacer/Copier1[1]', #217 ) ;
#157 = DIRECTION ( 'NONE',  ( -3.491481338843133355E-15, 9.031770143711729009E-17, -1.000000000000000000 ) ) ;
#158 = UNCERTAINTY_MEASURE_WITH_UNIT (LENGTH_MEASURE( 1.000000000000000082E-05 ), #164, 'distance_accuracy_value', 'NONE');
#159 = AXIS2_PLACEMENT_3D ( 'NONE', #234, #98, #11 ) ;
#160 = AXIS2_PLACEMENT_3D ( 'NONE', #40, #227, #60 ) ;
#161 = CALENDAR_DATE ( 2021, 26, 11 ) ;
#162 = PRODUCT_RELATED_PRODUCT_CATEGORY ( 'detail', '', ( #163 ) ) ;
#163 = PRODUCT ( '321507', '321507', '', ( #25 ) ) ;
#164 =( LENGTH_UNIT ( ) NAMED_UNIT ( * ) SI_UNIT ( .MILLI., .METRE. ) );
#165 = COORDINATED_UNIVERSAL_TIME_OFFSET ( 1, 0, .AHEAD. ) ;
#166 = VERTEX_POINT ( 'NONE', #71 ) ;
#167 = CC_DESIGN_SECURITY_CLASSIFICATION ( #149, ( #221 ) ) ;
#168 =( NAMED_UNIT ( * ) PLANE_ANGLE_UNIT ( ) SI_UNIT ( $, .RADIAN. ) );
#169 = DATE_AND_TIME ( #187, #4 ) ;
#170 = DIRECTION ( 'NONE',  ( -3.491481338843133355E-15, -5.564645769357518922E-16, -1.000000000000000000 ) ) ;
#171 = ORIENTED_EDGE ( 'NONE', *, *, #105, .F. ) ;
#172 = AXIS2_PLACEMENT_3D ( 'NONE', #113, #12, #173 ) ;
#173 = DIRECTION ( 'NONE',  ( 3.153425691349006731E-31, 1.000000000000000000, 9.031770143711729009E-17 ) ) ;
#174 = ADVANCED_FACE ( 'NONE', ( #195, #103 ), #31, .T. ) ;
#175 = ADVANCED_FACE ( 'NONE', ( #80, #226 ), #59, .T. ) ;
#176 = EDGE_LOOP ( 'NONE', ( #32 ) ) ;
#177 = AXIS2_PLACEMENT_3D ( 'NONE', #20, #179, #82 ) ;
#178 = DATE_AND_TIME ( #161, #87 ) ;
#179 = DIRECTION ( 'NONE',  ( -3.491481338843133355E-15, 9.031770143711729009E-17, -1.000000000000000000 ) ) ;
#180 = DATE_AND_TIME ( #76, #210 ) ;
#181 = APPROVAL_PERSON_ORGANIZATION ( #108, #45, #131 ) ;
#182 = PRODUCT_DEFINITION ( 'UNKNOWN', '', #221, #100 ) ;
#183 = FACE_OUTER_BOUND ( 'NONE', #7, .T. ) ;
#184 = AXIS2_PLACEMENT_3D ( 'NONE', #101, #240, #41 ) ;
#185 = FACE_OUTER_BOUND ( 'NONE', #176, .T. ) ;
#186 = CARTESIAN_POINT ( 'NONE',  ( 1.396592535537253539E-15, 3.019999999999998685, 0.4000000000000000222 ) ) ;
#187 = CALENDAR_DATE ( 2021, 26, 11 ) ;
#188 = CC_DESIGN_PERSON_AND_ORGANIZATION_ASSIGNMENT ( #135, #49, ( #182 ) ) ;
#189 = EDGE_LOOP ( 'NONE', ( #171 ) ) ;
#190 = APPROVAL_DATE_TIME ( #169, #45 ) ;
#191 = DIRECTION ( 'NONE',  ( 1.942885686098416652E-30, -1.000000000000000000, 5.564645769357518922E-16 ) ) ;
#192 = ORIENTED_EDGE ( 'NONE', *, *, #214, .T. ) ;
#193 = CLOSED_SHELL ( 'NONE', ( #16, #175, #142, #204 ) ) ;
#194 = CARTESIAN_POINT ( 'NONE',  ( 4.268394106554975770E-14, -1.104148947447958054E-15, 12.22516660498395957 ) ) ;
#195 = FACE_BOUND ( 'NONE', #222, .T. ) ;
#196 = CIRCLE ( 'NONE', #84, 1.999999999999995337 ) ;
#197 = PERSON_AND_ORGANIZATION_ROLE ( 'classification_officer' ) ;
#198 = DIRECTION ( 'NONE',  ( -3.491481338843133355E-15, -5.564645769357518922E-16, -1.000000000000000000 ) ) ;
#199 = APPROVAL_DATE_TIME ( #57, #216 ) ;
#200 = APPROVAL_STATUS ( 'not_yet_approved' ) ;
#201 = FACE_OUTER_BOUND ( 'NONE', #115, .T. ) ;
#202 = VERTEX_POINT ( 'NONE', #91 ) ;
#203 = PLANE ( 'NONE',  #121 ) ;
#204 = ADVANCED_FACE ( 'NONE', ( #96 ), #83, .T. ) ;
#205 = CC_DESIGN_PERSON_AND_ORGANIZATION_ASSIGNMENT ( #81, #38, ( #221 ) ) ;
#206 = ORIENTED_EDGE ( 'NONE', *, *, #62, .F. ) ;
#207 = CARTESIAN_POINT ( 'NONE',  ( 4.268394106554976401E-14, 6.802872162811483352E-15, 12.22516660498396135 ) ) ;
#208 = DIRECTION ( 'NONE',  ( -3.491481338843133355E-15, 9.031770143711729009E-17, -1.000000000000000000 ) ) ;
#209 = DATE_TIME_ROLE ( 'classification_date' ) ;
#210 = LOCAL_TIME ( 11, 4, 32.00000000000000000, #21 ) ;
#211 = EDGE_CURVE ( 'NONE', #202, #202, #9, .T. ) ;
#212 = FACE_OUTER_BOUND ( 'NONE', #134, .T. ) ;
#213 = CIRCLE ( 'NONE', #229, 3.019999999999992024 ) ;
#214 = EDGE_CURVE ( 'NONE', #28, #28, #213, .T. ) ;
#215 = COORDINATED_UNIVERSAL_TIME_OFFSET ( 1, 0, .AHEAD. ) ;
#216 = APPROVAL ( #200, 'UNSPECIFIED' ) ;
#217 = CLOSED_SHELL ( 'NONE', ( #219, #174, #63, #44, #93 ) ) ;
#218 = APPROVAL_STATUS ( 'not_yet_approved' ) ;
#219 = ADVANCED_FACE ( 'NONE', ( #201 ), #203, .T. ) ;
#220 = DIRECTION ( 'NONE',  ( -1.942885686098416652E-30, 1.000000000000000000, -5.564645769357518922E-16 ) ) ;
#221 = PRODUCT_DEFINITION_FORMATION_WITH_SPECIFIED_SOURCE ( 'ANY', '', #163, .NOT_KNOWN. ) ;
#222 = EDGE_LOOP ( 'NONE', ( #237 ) ) ;
#223 = PLANE ( 'NONE',  #225 ) ;
#224 = ADVANCED_BREP_SHAPE_REPRESENTATION ( '321507', ( #156, #73, #145 ), #110 ) ;
#225 = AXIS2_PLACEMENT_3D ( 'NONE', #207, #14, #191 ) ;
#226 = FACE_OUTER_BOUND ( 'NONE', #189, .T. ) ;
#227 = DIRECTION ( 'NONE',  ( -3.491481338843133355E-15, 9.031770143711729009E-17, -1.000000000000000000 ) ) ;
#228 = CARTESIAN_POINT ( 'NONE',  ( 4.268394106554976401E-14, 6.802872162811482563E-15, 12.22516660498396135 ) ) ;
#229 = AXIS2_PLACEMENT_3D ( 'NONE', #228, #8, #92 ) ;
#230 = APPROVAL_ROLE ( '' ) ;
#231 = CARTESIAN_POINT ( 'NONE',  ( 1.396592535537259259E-15, 2.225858307743016838E-16, 0.4000000000000016875 ) ) ;
#232 =( NAMED_UNIT ( * ) SI_UNIT ( $, .STERADIAN. ) SOLID_ANGLE_UNIT ( ) );
#233 = DATE_AND_TIME ( #66, #39 ) ;
#234 = CARTESIAN_POINT ( 'NONE',  ( 2.793185071074506684E-13, -7.225416114969383207E-15, 80.00000000000000000 ) ) ;
#235 = CARTESIAN_POINT ( 'NONE',  ( 4.885231259955590439E-14, 1.999999999999990452, 13.99185842870425134 ) ) ;
#236 = DATE_TIME_ROLE ( 'creation_date' ) ;
#237 = ORIENTED_EDGE ( 'NONE', *, *, #37, .T. ) ;
#238 = AXIS2_PLACEMENT_3D ( 'NONE', #194, #153, #104 ) ;
#239 = EDGE_LOOP ( 'NONE', ( #150 ) ) ;
#240 = DIRECTION ( 'NONE',  ( -3.491481338843133355E-15, 9.031770143711729009E-17, -1.000000000000000000 ) ) ;
#241 = CC_DESIGN_PERSON_AND_ORGANIZATION_ASSIGNMENT ( #127, #27, ( #221 ) ) ;
#242 = CIRCLE ( 'NONE', #102, 3.019999999999998241 ) ;
#243 = DIRECTION ( 'NONE',  ( -1.942885686098416652E-30, 1.000000000000000000, -5.564645769357518922E-16 ) ) ;
ENDSEC;
END-ISO-10303-21;
