ISO-10303-21;
HEADER;
FILE_DESCRIPTION (( 'STEP AP203' ),
    '1' );
FILE_NAME ('321506.step',
    '2021-11-26T10:04:31',
    ( '' ),
    ( '' ),
    'SwSTEP 2.0',
    'SolidWorks 2019',
    '' );
FILE_SCHEMA (( 'CONFIG_CONTROL_DESIGN' ));
ENDSEC;

DATA;
#1 = ORIENTED_EDGE ( 'NONE', *, *, #199, .T. ) ;
#2 = DIRECTION ( 'NONE',  ( 3.491481338843133355E-15, -9.031770143711729009E-17, 1.000000000000000000 ) ) ;
#3 = CARTESIAN_POINT ( 'NONE',  ( 1.396592535537259259E-15, 2.223589099536378826E-16, 0.4000000000000016875 ) ) ;
#4 = CC_DESIGN_PERSON_AND_ORGANIZATION_ASSIGNMENT ( #62, #42, ( #234 ) ) ;
#5 = DATE_TIME_ROLE ( 'classification_date' ) ;
#6 = APPROVAL_STATUS ( 'not_yet_approved' ) ;
#7 = DIRECTION ( 'NONE',  ( 0.0000000000000000000, 0.0000000000000000000, 1.000000000000000000 ) ) ;
#8 = AXIS2_PLACEMENT_3D ( 'NONE', #104, #215, #166 ) ;
#9 = CARTESIAN_POINT ( 'NONE',  ( 4.885231259955590439E-14, 1.999999999999990452, 13.99185842870425134 ) ) ;
#10 = AXIS2_PLACEMENT_3D ( 'NONE', #221, #225, #95 ) ;
#11 = CC_DESIGN_SECURITY_CLASSIFICATION ( #238, ( #108 ) ) ;
#12 = DIRECTION ( 'NONE',  ( -2.044104750261748228E-30, 1.000000000000000000, -5.753643369740668815E-16 ) ) ;
#13 = CARTESIAN_POINT ( 'NONE',  ( 0.0000000000000000000, 0.0000000000000000000, 0.0000000000000000000 ) ) ;
#14 = FACE_OUTER_BOUND ( 'NONE', #204, .T. ) ;
#15 = CC_DESIGN_DATE_AND_TIME_ASSIGNMENT ( #63, #5, ( #238 ) ) ;
#16 = EDGE_LOOP ( 'NONE', ( #49 ) ) ;
#17 = AXIS2_PLACEMENT_3D ( 'NONE', #226, #2, #58 ) ;
#18 = MANIFOLD_SOLID_BREP ( 'Corps-Déplacer/Copier1[2]', #206 ) ;
#19 = APPROVAL_PERSON_ORGANIZATION ( #26, #82, #99 ) ;
#20 = DIRECTION ( 'NONE',  ( -3.491481338843133355E-15, -5.558972748840922906E-16, -1.000000000000000000 ) ) ;
#21 = EDGE_LOOP ( 'NONE', ( #134 ) ) ;
#22 = EDGE_LOOP ( 'NONE', ( #137 ) ) ;
#23 = CC_DESIGN_PERSON_AND_ORGANIZATION_ASSIGNMENT ( #30, #180, ( #108 ) ) ;
#24 =( NAMED_UNIT ( * ) PLANE_ANGLE_UNIT ( ) SI_UNIT ( $, .RADIAN. ) );
#25 = ADVANCED_FACE ( 'NONE', ( #189, #154 ), #237, .T. ) ;
#26 = PERSON_AND_ORGANIZATION ( #75, #159 ) ;
#27 = PERSON_AND_ORGANIZATION ( #75, #159 ) ;
#28 = COORDINATED_UNIVERSAL_TIME_OFFSET ( 1, 0, .AHEAD. ) ;
#29 = CIRCLE ( 'NONE', #96, 3.015000000000000124 ) ;
#30 = PERSON_AND_ORGANIZATION ( #75, #159 ) ;
#31 = VERTEX_POINT ( 'NONE', #61 ) ;
#32 = COORDINATED_UNIVERSAL_TIME_OFFSET ( 1, 0, .AHEAD. ) ;
#33 = DIRECTION ( 'NONE',  ( 3.153425691349006731E-31, 1.000000000000000000, 9.031770143711729009E-17 ) ) ;
#34 = FACE_OUTER_BOUND ( 'NONE', #220, .T. ) ;
#35 = ADVANCED_FACE ( 'NONE', ( #110 ), #185, .T. ) ;
#36 = CARTESIAN_POINT ( 'NONE',  ( 4.271417818091252643E-14, -1.104931121686517745E-15, 12.23382685902180356 ) ) ;
#37 = ORIENTED_EDGE ( 'NONE', *, *, #109, .F. ) ;
#38 = CYLINDRICAL_SURFACE ( 'NONE', #179, 3.014999999999995239 ) ;
#39 = ORIENTED_EDGE ( 'NONE', *, *, #240, .T. ) ;
#40 = AXIS2_PLACEMENT_3D ( 'NONE', #222, #97, #100 ) ;
#41 = ADVANCED_FACE ( 'NONE', ( #120, #124 ), #139, .T. ) ;
#42 = PERSON_AND_ORGANIZATION_ROLE ( 'creator' ) ;
#43 = APPROVAL_DATE_TIME ( #145, #82 ) ;
#44 = APPROVAL ( #65, 'UNSPECIFIED' ) ;
#45 = PLANE ( 'NONE',  #227 ) ;
#46 = AXIS2_PLACEMENT_3D ( 'NONE', #136, #205, #113 ) ;
#47 = LOCAL_TIME ( 11, 4, 31.00000000000000000, #28 ) ;
#48 = DIRECTION ( 'NONE',  ( 1.940904961571559833E-30, -1.000000000000000000, 5.558972748840922906E-16 ) ) ;
#49 = ORIENTED_EDGE ( 'NONE', *, *, #109, .T. ) ;
#50 = FACE_OUTER_BOUND ( 'NONE', #90, .T. ) ;
#51 = DIRECTION ( 'NONE',  ( 0.0000000000000000000, 1.000000000000000000, 0.0000000000000000000 ) ) ;
#52 = EDGE_LOOP ( 'NONE', ( #170 ) ) ;
#53 = LOCAL_TIME ( 11, 4, 31.00000000000000000, #231 ) ;
#54 = ORIENTED_EDGE ( 'NONE', *, *, #141, .F. ) ;
#55 = DIRECTION ( 'NONE',  ( 0.0000000000000000000, 1.000000000000000000, 0.0000000000000000000 ) ) ;
#56 = CC_DESIGN_PERSON_AND_ORGANIZATION_ASSIGNMENT ( #144, #230, ( #153 ) ) ;
#57 = AXIS2_PLACEMENT_3D ( 'NONE', #106, #219, #12 ) ;
#58 = DIRECTION ( 'NONE',  ( -3.153425691349006731E-31, -1.000000000000000000, -9.031770143711729009E-17 ) ) ;
#59 = DIRECTION ( 'NONE',  ( -1.916348203370384606E-30, 1.000000000000000000, -5.573842014436260373E-16 ) ) ;
#60 = DATE_TIME_ROLE ( 'creation_date' ) ;
#61 = CARTESIAN_POINT ( 'NONE',  ( 1.396592535537253539E-15, 3.014999999999999236, 0.4000000000000000222 ) ) ;
#62 = PERSON_AND_ORGANIZATION ( #75, #159 ) ;
#63 = DATE_AND_TIME ( #175, #202 ) ;
#64 = CLOSED_SHELL ( 'NONE', ( #35, #41, #77, #25, #211 ) ) ;
#65 = APPROVAL_STATUS ( 'not_yet_approved' ) ;
#66 = VERTEX_POINT ( 'NONE', #9 ) ;
#67 = DIRECTION ( 'NONE',  ( 3.491481338843133355E-15, 5.558972748840922906E-16, 1.000000000000000000 ) ) ;
#68 = APPROVAL_DATE_TIME ( #167, #102 ) ;
#69 = DIRECTION ( 'NONE',  ( -3.491481338843133355E-15, -5.558972748840922906E-16, -1.000000000000000000 ) ) ;
#70 =( GEOMETRIC_REPRESENTATION_CONTEXT ( 3 ) GLOBAL_UNCERTAINTY_ASSIGNED_CONTEXT ( ( #138 ) ) GLOBAL_UNIT_ASSIGNED_CONTEXT ( ( #228, #24, #210 ) ) REPRESENTATION_CONTEXT ( 'NONE', 'WORKASPACE' ) );
#71 = AXIS2_PLACEMENT_3D ( 'NONE', #3, #126, #59 ) ;
#72 = PERSON_AND_ORGANIZATION_ROLE ( 'classification_officer' ) ;
#73 = DIRECTION ( 'NONE',  ( 3.491481338843133355E-15, 5.558972748840922906E-16, 1.000000000000000000 ) ) ;
#74 = DIRECTION ( 'NONE',  ( -3.491481338843133355E-15, 9.031770143711729009E-17, -1.000000000000000000 ) ) ;
#75 = PERSON ( 'UNSPECIFIED', 'UNSPECIFIED', 'UNSPECIFIED', ('UNSPECIFIED'), ('UNSPECIFIED'), ('UNSPECIFIED') ) ;
#76 = ORIENTED_EDGE ( 'NONE', *, *, #149, .F. ) ;
#77 = ADVANCED_FACE ( 'NONE', ( #172, #119 ), #93, .T. ) ;
#78 = APPROVAL_PERSON_ORGANIZATION ( #27, #44, #200 ) ;
#79 = CARTESIAN_POINT ( 'NONE',  ( 0.0000000000000000000, 0.0000000000000000000, 0.0000000000000000000 ) ) ;
#80 = CARTESIAN_POINT ( 'NONE',  ( 4.271417818091252643E-14, 3.014999999999999236, 12.23382685902180356 ) ) ;
#81 = VERTEX_POINT ( 'NONE', #235 ) ;
#82 = APPROVAL ( #161, 'UNSPECIFIED' ) ;
#83 = APPLICATION_PROTOCOL_DEFINITION ( 'international standard', 'config_control_design', 1994, #214 ) ;
#84 = VERTEX_POINT ( 'NONE', #101 ) ;
#85 = CIRCLE ( 'NONE', #217, 1.999999999999995337 ) ;
#86 = CARTESIAN_POINT ( 'NONE',  ( 2.793185071074506684E-13, -7.225416114969383207E-15, 80.00000000000000000 ) ) ;
#87 = DIRECTION ( 'NONE',  ( 0.0000000000000000000, 1.000000000000000000, 0.0000000000000000000 ) ) ;
#88 = AXIS2_PLACEMENT_3D ( 'NONE', #92, #67, #48 ) ;
#89 = PRODUCT_RELATED_PRODUCT_CATEGORY ( 'detail', '', ( #153 ) ) ;
#90 = EDGE_LOOP ( 'NONE', ( #111 ) ) ;
#91 = AXIS2_PLACEMENT_3D ( 'NONE', #123, #216, #55 ) ;
#92 = CARTESIAN_POINT ( 'NONE',  ( 4.271417818091252012E-14, 6.800751012334034841E-15, 12.23382685902180178 ) ) ;
#93 = CYLINDRICAL_SURFACE ( 'NONE', #114, 1.999999999999993561 ) ;
#94 = CC_DESIGN_PERSON_AND_ORGANIZATION_ASSIGNMENT ( #125, #178, ( #108 ) ) ;
#95 = DIRECTION ( 'NONE',  ( 0.0000000000000000000, 1.000000000000000000, 0.0000000000000000000 ) ) ;
#96 = AXIS2_PLACEMENT_3D ( 'NONE', #36, #107, #51 ) ;
#97 = DIRECTION ( 'NONE',  ( -3.491481338843133355E-15, 9.031770143711729009E-17, -1.000000000000000000 ) ) ;
#98 = MANIFOLD_SOLID_BREP ( 'Corps-Déplacer/Copier1[1]', #64 ) ;
#99 = APPROVAL_ROLE ( '' ) ;
#100 = DIRECTION ( 'NONE',  ( 3.153425691349006731E-31, 1.000000000000000000, 9.031770143711729009E-17 ) ) ;
#101 = CARTESIAN_POINT ( 'NONE',  ( 2.779219145719134403E-13, 1.999999999999988010, 79.60000000000000853 ) ) ;
#102 = APPROVAL ( #6, 'UNSPECIFIED' ) ;
#103 = CALENDAR_DATE ( 2021, 26, 11 ) ;
#104 = CARTESIAN_POINT ( 'NONE',  ( 4.885231259955590439E-14, -1.263712492114123682E-15, 13.99185842870425134 ) ) ;
#105 = VERTEX_POINT ( 'NONE', #213 ) ;
#106 = CARTESIAN_POINT ( 'NONE',  ( 4.271417818091253274E-14, 6.800751012334035630E-15, 12.23382685902180533 ) ) ;
#107 = DIRECTION ( 'NONE',  ( -3.491481338843133355E-15, 9.031770143711729009E-17, -1.000000000000000000 ) ) ;
#108 = PRODUCT_DEFINITION_FORMATION_WITH_SPECIFIED_SOURCE ( 'ANY', '', #153, .NOT_KNOWN. ) ;
#109 = EDGE_CURVE ( 'NONE', #162, #162, #29, .T. ) ;
#110 = FACE_OUTER_BOUND ( 'NONE', #191, .T. ) ;
#111 = ORIENTED_EDGE ( 'NONE', *, *, #240, .F. ) ;
#112 = CARTESIAN_POINT ( 'NONE',  ( 0.0000000000000000000, 0.0000000000000000000, 0.0000000000000000000 ) ) ;
#113 = DIRECTION ( 'NONE',  ( -1.940904961571559833E-30, 1.000000000000000000, -5.558972748840922906E-16 ) ) ;
#114 = AXIS2_PLACEMENT_3D ( 'NONE', #13, #115, #33 ) ;
#115 = DIRECTION ( 'NONE',  ( -3.491481338843133355E-15, 9.031770143711729009E-17, -1.000000000000000000 ) ) ;
#116 = ORIENTED_EDGE ( 'NONE', *, *, #135, .T. ) ;
#117 = EDGE_LOOP ( 'NONE', ( #156 ) ) ;
#118 = CIRCLE ( 'NONE', #8, 1.999999999999991784 ) ;
#119 = FACE_OUTER_BOUND ( 'NONE', #140, .T. ) ;
#120 = FACE_BOUND ( 'NONE', #203, .T. ) ;
#121 = PERSON_AND_ORGANIZATION ( #75, #159 ) ;
#122 = AXIS2_PLACEMENT_3D ( 'NONE', #86, #74, #146 ) ;
#123 = CARTESIAN_POINT ( 'NONE',  ( 2.779219145719134403E-13, -7.189289034394536528E-15, 79.60000000000000853 ) ) ;
#124 = FACE_OUTER_BOUND ( 'NONE', #158, .T. ) ;
#125 = PERSON_AND_ORGANIZATION ( #75, #159 ) ;
#126 = DIRECTION ( 'NONE',  ( -3.491481338843133355E-15, -5.558972748840922906E-16, -1.000000000000000000 ) ) ;
#127 = AXIS2_PLACEMENT_3D ( 'NONE', #79, #7, #212 ) ;
#128 = CC_DESIGN_APPROVAL ( #44, ( #234 ) ) ;
#129 = DATE_AND_TIME ( #147, #201 ) ;
#130 = DIRECTION ( 'NONE',  ( -1.940904961571559833E-30, 1.000000000000000000, -5.558972748840922906E-16 ) ) ;
#131 = ADVANCED_FACE ( 'NONE', ( #14, #242 ), #232, .T. ) ;
#132 = CC_DESIGN_APPROVAL ( #102, ( #238 ) ) ;
#133 = FACE_OUTER_BOUND ( 'NONE', #171, .T. ) ;
#134 = ORIENTED_EDGE ( 'NONE', *, *, #141, .T. ) ;
#135 = EDGE_CURVE ( 'NONE', #196, #196, #142, .T. ) ;
#136 = CARTESIAN_POINT ( 'NONE',  ( 5.403595658324323464E-30, 8.603351441750214818E-31, 1.547651307257093925E-15 ) ) ;
#137 = ORIENTED_EDGE ( 'NONE', *, *, #160, .F. ) ;
#138 = UNCERTAINTY_MEASURE_WITH_UNIT (LENGTH_MEASURE( 1.000000000000000082E-05 ), #228, 'distance_accuracy_value', 'NONE');
#139 = CONICAL_SURFACE ( 'NONE', #91, 1.999999999999995337, 0.7853981633974516097 ) ;
#140 = EDGE_LOOP ( 'NONE', ( #76 ) ) ;
#141 = EDGE_CURVE ( 'NONE', #84, #84, #85, .T. ) ;
#142 = CIRCLE ( 'NONE', #46, 2.784059892324149299 ) ;
#143 = LOCAL_TIME ( 11, 4, 31.00000000000000000, #32 ) ;
#144 = PERSON_AND_ORGANIZATION ( #75, #159 ) ;
#145 = DATE_AND_TIME ( #164, #53 ) ;
#146 = DIRECTION ( 'NONE',  ( 0.0000000000000000000, 1.000000000000000000, 0.0000000000000000000 ) ) ;
#147 = CALENDAR_DATE ( 2021, 26, 11 ) ;
#148 = APPROVAL_ROLE ( '' ) ;
#149 = EDGE_CURVE ( 'NONE', #66, #66, #118, .T. ) ;
#150 = CIRCLE ( 'NONE', #71, 3.014999999999998792 ) ;
#151 = ADVANCED_BREP_SHAPE_REPRESENTATION ( '321506', ( #98, #18, #127 ), #70 ) ;
#152 = DIRECTION ( 'NONE',  ( 1.940904961571560183E-30, -1.000000000000000000, 5.558972748840922906E-16 ) ) ;
#153 = PRODUCT ( '321506', '321506', '', ( #177 ) ) ;
#154 = FACE_OUTER_BOUND ( 'NONE', #207, .T. ) ;
#155 = PRODUCT_DEFINITION_SHAPE ( 'NONE', 'NONE',  #234 ) ;
#156 = ORIENTED_EDGE ( 'NONE', *, *, #149, .T. ) ;
#157 = ADVANCED_FACE ( 'NONE', ( #229 ), #165, .T. ) ;
#158 = EDGE_LOOP ( 'NONE', ( #54 ) ) ;
#159 = ORGANIZATION ( 'UNSPECIFIED', 'UNSPECIFIED', '' ) ;
#160 = EDGE_CURVE ( 'NONE', #81, #81, #223, .T. ) ;
#161 = APPROVAL_STATUS ( 'not_yet_approved' ) ;
#162 = VERTEX_POINT ( 'NONE', #80 ) ;
#163 = DATE_AND_TIME ( #103, #47 ) ;
#164 = CALENDAR_DATE ( 2021, 26, 11 ) ;
#165 = PLANE ( 'NONE',  #88 ) ;
#166 = DIRECTION ( 'NONE',  ( 0.0000000000000000000, 1.000000000000000000, 0.0000000000000000000 ) ) ;
#167 = DATE_AND_TIME ( #239, #143 ) ;
#168 = AXIS2_PLACEMENT_3D ( 'NONE', #184, #73, #152 ) ;
#169 = COORDINATED_UNIVERSAL_TIME_OFFSET ( 1, 0, .AHEAD. ) ;
#170 = ORIENTED_EDGE ( 'NONE', *, *, #135, .F. ) ;
#171 = EDGE_LOOP ( 'NONE', ( #116 ) ) ;
#172 = FACE_OUTER_BOUND ( 'NONE', #21, .T. ) ;
#173 = DIRECTION ( 'NONE',  ( -3.491481338843133355E-15, 9.031770143711729009E-17, -1.000000000000000000 ) ) ;
#174 = ADVANCED_FACE ( 'NONE', ( #133 ), #45, .T. ) ;
#175 = CALENDAR_DATE ( 2021, 26, 11 ) ;
#176 = CC_DESIGN_PERSON_AND_ORGANIZATION_ASSIGNMENT ( #121, #72, ( #238 ) ) ;
#177 = MECHANICAL_CONTEXT ( 'NONE', #214, 'mechanical' ) ;
#178 = PERSON_AND_ORGANIZATION_ROLE ( 'creator' ) ;
#179 = AXIS2_PLACEMENT_3D ( 'NONE', #112, #20, #130 ) ;
#180 = PERSON_AND_ORGANIZATION_ROLE ( 'design_supplier' ) ;
#181 = CC_DESIGN_DATE_AND_TIME_ASSIGNMENT ( #129, #60, ( #234 ) ) ;
#182 = DESIGN_CONTEXT ( 'detailed design', #195, 'design' ) ;
#183 = CC_DESIGN_APPROVAL ( #82, ( #108 ) ) ;
#184 = CARTESIAN_POINT ( 'NONE',  ( 5.403595658324323464E-30, 8.603351441750214818E-31, 1.547651307257093925E-15 ) ) ;
#185 = PLANE ( 'NONE',  #17 ) ;
#186 = CARTESIAN_POINT ( 'NONE',  ( -2.701797829162161732E-30, 2.784059892324149299, -7.738256536285469626E-16 ) ) ;
#187 = CIRCLE ( 'NONE', #122, 1.599999999999994982 ) ;
#188 = CARTESIAN_POINT ( 'NONE',  ( 2.779219145719134403E-13, -7.189289034394536528E-15, 79.60000000000000853 ) ) ;
#189 = FACE_BOUND ( 'NONE', #117, .T. ) ;
#190 = PLANE ( 'NONE',  #40 ) ;
#191 = EDGE_LOOP ( 'NONE', ( #224 ) ) ;
#192 = ADVANCED_FACE ( 'NONE', ( #34, #50 ), #38, .T. ) ;
#193 = ORIENTED_EDGE ( 'NONE', *, *, #160, .T. ) ;
#194 = APPROVAL_PERSON_ORGANIZATION ( #209, #102, #148 ) ;
#195 = APPLICATION_CONTEXT ( 'configuration controlled 3d designs of mechanical parts and assemblies' ) ;
#196 = VERTEX_POINT ( 'NONE', #198 ) ;
#197 = APPLICATION_PROTOCOL_DEFINITION ( 'international standard', 'config_control_design', 1994, #195 ) ;
#198 = CARTESIAN_POINT ( 'NONE',  ( -6.842277657836020854E-46, 2.784059892324149299, 0.0000000000000000000 ) ) ;
#199 = EDGE_CURVE ( 'NONE', #105, #105, #187, .T. ) ;
#200 = APPROVAL_ROLE ( '' ) ;
#201 = LOCAL_TIME ( 11, 4, 31.00000000000000000, #169 ) ;
#202 = LOCAL_TIME ( 11, 4, 31.00000000000000000, #208 ) ;
#203 = EDGE_LOOP ( 'NONE', ( #1 ) ) ;
#204 = EDGE_LOOP ( 'NONE', ( #39 ) ) ;
#205 = DIRECTION ( 'NONE',  ( -3.491481338843133355E-15, -5.558972748840922906E-16, -1.000000000000000000 ) ) ;
#206 = CLOSED_SHELL ( 'NONE', ( #157, #192, #131, #174 ) ) ;
#207 = EDGE_LOOP ( 'NONE', ( #37 ) ) ;
#208 = COORDINATED_UNIVERSAL_TIME_OFFSET ( 1, 0, .AHEAD. ) ;
#209 = PERSON_AND_ORGANIZATION ( #75, #159 ) ;
#210 =( NAMED_UNIT ( * ) SI_UNIT ( $, .STERADIAN. ) SOLID_ANGLE_UNIT ( ) );
#211 = ADVANCED_FACE ( 'NONE', ( #243 ), #190, .T. ) ;
#212 = DIRECTION ( 'NONE',  ( 1.000000000000000000, 0.0000000000000000000, 0.0000000000000000000 ) ) ;
#213 = CARTESIAN_POINT ( 'NONE',  ( 2.793185071074506684E-13, 1.599999999999987876, 80.00000000000000000 ) ) ;
#214 = APPLICATION_CONTEXT ( 'configuration controlled 3d designs of mechanical parts and assemblies' ) ;
#215 = DIRECTION ( 'NONE',  ( -3.491481338843133355E-15, 9.031770143711729009E-17, -1.000000000000000000 ) ) ;
#216 = DIRECTION ( 'NONE',  ( -3.491481338843133355E-15, 9.031770143711729009E-17, -1.000000000000000000 ) ) ;
#217 = AXIS2_PLACEMENT_3D ( 'NONE', #188, #173, #87 ) ;
#218 = DIRECTION ( 'NONE',  ( -1.940904961571559833E-30, 1.000000000000000000, -5.558972748840922906E-16 ) ) ;
#219 = DIRECTION ( 'NONE',  ( -3.491481338843133355E-15, -5.558972748840922906E-16, -1.000000000000000000 ) ) ;
#220 = EDGE_LOOP ( 'NONE', ( #193 ) ) ;
#221 = CARTESIAN_POINT ( 'NONE',  ( 4.271417818091252643E-14, -1.104931121686517745E-15, 12.23382685902180356 ) ) ;
#222 = CARTESIAN_POINT ( 'NONE',  ( 4.271417818091252012E-14, 3.014999999999999236, 12.23382685902180178 ) ) ;
#223 = CIRCLE ( 'NONE', #57, 3.014999999999992131 ) ;
#224 = ORIENTED_EDGE ( 'NONE', *, *, #199, .F. ) ;
#225 = DIRECTION ( 'NONE',  ( -3.491481338843133355E-15, 9.031770143711729009E-17, -1.000000000000000000 ) ) ;
#226 = CARTESIAN_POINT ( 'NONE',  ( 2.793185071074506684E-13, -7.225416114969383207E-15, 80.00000000000000000 ) ) ;
#227 = AXIS2_PLACEMENT_3D ( 'NONE', #186, #69, #218 ) ;
#228 =( LENGTH_UNIT ( ) NAMED_UNIT ( * ) SI_UNIT ( .MILLI., .METRE. ) );
#229 = FACE_OUTER_BOUND ( 'NONE', #22, .T. ) ;
#230 = PERSON_AND_ORGANIZATION_ROLE ( 'design_owner' ) ;
#231 = COORDINATED_UNIVERSAL_TIME_OFFSET ( 1, 0, .AHEAD. ) ;
#232 = CONICAL_SURFACE ( 'NONE', #168, 2.784059892324149299, 0.5235987755982969283 ) ;
#233 = APPROVAL_DATE_TIME ( #163, #44 ) ;
#234 = PRODUCT_DEFINITION ( 'UNKNOWN', '', #108, #182 ) ;
#235 = CARTESIAN_POINT ( 'NONE',  ( 4.271417818091252643E-14, 3.014999999999999236, 12.23382685902180356 ) ) ;
#236 = SECURITY_CLASSIFICATION_LEVEL ( 'unclassified' ) ;
#237 = CONICAL_SURFACE ( 'NONE', #10, 3.015000000000000124, 0.5235987755982930425 ) ;
#238 = SECURITY_CLASSIFICATION ( '', '', #236 ) ;
#239 = CALENDAR_DATE ( 2021, 26, 11 ) ;
#240 = EDGE_CURVE ( 'NONE', #31, #31, #150, .T. ) ;
#241 = SHAPE_DEFINITION_REPRESENTATION ( #155, #151 ) ;
#242 = FACE_BOUND ( 'NONE', #52, .T. ) ;
#243 = FACE_OUTER_BOUND ( 'NONE', #16, .T. ) ;
ENDSEC;
END-ISO-10303-21;
