ISO-10303-21;
HEADER;
FILE_DESCRIPTION (( 'STEP AP203' ),
    '1' );
FILE_NAME ('321505.step',
    '2021-11-26T10:04:31',
    ( '' ),
    ( '' ),
    'SwSTEP 2.0',
    'SolidWorks 2019',
    '' );
FILE_SCHEMA (( 'CONFIG_CONTROL_DESIGN' ));
ENDSEC;

DATA;
#1 = EDGE_LOOP ( 'NONE', ( #59 ) ) ;
#2 = AXIS2_PLACEMENT_3D ( 'NONE', #35, #77, #135 ) ;
#3 = CARTESIAN_POINT ( 'NONE',  ( 2.779219145719134403E-13, 1.999999999999988010, 79.60000000000000853 ) ) ;
#4 = APPROVAL_DATE_TIME ( #180, #176 ) ;
#5 = EDGE_LOOP ( 'NONE', ( #181 ) ) ;
#6 = CALENDAR_DATE ( 2021, 26, 11 ) ;
#7 = EDGE_LOOP ( 'NONE', ( #40 ) ) ;
#8 = PERSON_AND_ORGANIZATION ( #82, #238 ) ;
#9 = LOCAL_TIME ( 11, 4, 31.00000000000000000, #146 ) ;
#10 = CARTESIAN_POINT ( 'NONE',  ( 2.793185071074506684E-13, 1.599999999999987876, 80.00000000000000000 ) ) ;
#11 = APPLICATION_CONTEXT ( 'configuration controlled 3d designs of mechanical parts and assemblies' ) ;
#12 = FACE_OUTER_BOUND ( 'NONE', #5, .T. ) ;
#13 = DATE_AND_TIME ( #114, #131 ) ;
#14 = FACE_BOUND ( 'NONE', #160, .T. ) ;
#15 = EDGE_CURVE ( 'NONE', #95, #95, #28, .T. ) ;
#16 = CARTESIAN_POINT ( 'NONE',  ( 4.274441529627532041E-14, 6.798629861856579231E-15, 12.24248711305965109 ) ) ;
#17 = CARTESIAN_POINT ( 'NONE',  ( 2.793185071074506684E-13, -7.225416114969383207E-15, 80.00000000000000000 ) ) ;
#18 = LOCAL_TIME ( 11, 4, 31.00000000000000000, #76 ) ;
#19 = CARTESIAN_POINT ( 'NONE',  ( 5.388394369193271571E-30, 8.570405890906975645E-31, 1.543297485009231360E-15 ) ) ;
#20 = DIRECTION ( 'NONE',  ( 0.0000000000000000000, 1.000000000000000000, 0.0000000000000000000 ) ) ;
#21 = APPLICATION_CONTEXT ( 'configuration controlled 3d designs of mechanical parts and assemblies' ) ;
#22 = CONICAL_SURFACE ( 'NONE', #2, 1.999999999999995337, 0.7853981633974516097 ) ;
#23 = ADVANCED_FACE ( 'NONE', ( #12 ), #73, .T. ) ;
#24 = PERSON_AND_ORGANIZATION ( #82, #238 ) ;
#25 = ORIENTED_EDGE ( 'NONE', *, *, #103, .F. ) ;
#26 = DIRECTION ( 'NONE',  ( 1.000000000000000000, 0.0000000000000000000, 0.0000000000000000000 ) ) ;
#27 = DIRECTION ( 'NONE',  ( 0.0000000000000000000, 1.000000000000000000, 0.0000000000000000000 ) ) ;
#28 = CIRCLE ( 'NONE', #104, 3.009999999999998010 ) ;
#29 = PERSON_AND_ORGANIZATION_ROLE ( 'classification_officer' ) ;
#30 = CARTESIAN_POINT ( 'NONE',  ( -2.694197184596635786E-30, 2.779059892324148517, -7.716487425046156799E-16 ) ) ;
#31 = COORDINATED_UNIVERSAL_TIME_OFFSET ( 1, 0, .AHEAD. ) ;
#32 = EDGE_CURVE ( 'NONE', #150, #150, #63, .T. ) ;
#33 = DIRECTION ( 'NONE',  ( -1.919531506033790991E-30, 1.000000000000000000, -5.583100888214395178E-16 ) ) ;
#34 = DIRECTION ( 'NONE',  ( -1.938927039347438159E-30, 1.000000000000000000, -5.553307754438354815E-16 ) ) ;
#35 = CARTESIAN_POINT ( 'NONE',  ( 2.779219145719134403E-13, -7.189289034394536528E-15, 79.60000000000000853 ) ) ;
#36 = ORIENTED_EDGE ( 'NONE', *, *, #32, .F. ) ;
#37 = EDGE_CURVE ( 'NONE', #105, #105, #142, .T. ) ;
#38 = ADVANCED_FACE ( 'NONE', ( #187, #236 ), #72, .T. ) ;
#39 = APPROVAL ( #172, 'UNSPECIFIED' ) ;
#40 = ORIENTED_EDGE ( 'NONE', *, *, #207, .F. ) ;
#41 = CALENDAR_DATE ( 2021, 26, 11 ) ;
#42 = DATE_TIME_ROLE ( 'creation_date' ) ;
#43 = CC_DESIGN_SECURITY_CLASSIFICATION ( #58, ( #194 ) ) ;
#44 = CARTESIAN_POINT ( 'NONE',  ( 0.0000000000000000000, 0.0000000000000000000, 0.0000000000000000000 ) ) ;
#45 = ORIENTED_EDGE ( 'NONE', *, *, #207, .T. ) ;
#46 = EDGE_LOOP ( 'NONE', ( #230 ) ) ;
#47 = EDGE_CURVE ( 'NONE', #64, #64, #93, .T. ) ;
#48 = DIRECTION ( 'NONE',  ( -3.491481338843133355E-15, 9.031770143711729009E-17, -1.000000000000000000 ) ) ;
#49 = APPROVAL_PERSON_ORGANIZATION ( #98, #39, #113 ) ;
#50 = APPROVAL_DATE_TIME ( #219, #39 ) ;
#51 = DIRECTION ( 'NONE',  ( 3.153425691349006731E-31, 1.000000000000000000, 9.031770143711729009E-17 ) ) ;
#52 = SECURITY_CLASSIFICATION_LEVEL ( 'unclassified' ) ;
#53 = ADVANCED_FACE ( 'NONE', ( #217 ), #129, .T. ) ;
#54 = DIRECTION ( 'NONE',  ( -3.153425691349006731E-31, -1.000000000000000000, -9.031770143711729009E-17 ) ) ;
#55 = DIRECTION ( 'NONE',  ( 1.938927039347438159E-30, -1.000000000000000000, 5.553307754438354815E-16 ) ) ;
#56 = PRODUCT ( '321505', '321505', '', ( #235 ) ) ;
#57 = CARTESIAN_POINT ( 'NONE',  ( 4.885231259955590439E-14, -1.263712492114123682E-15, 13.99185842870425134 ) ) ;
#58 = SECURITY_CLASSIFICATION ( '', '', #52 ) ;
#59 = ORIENTED_EDGE ( 'NONE', *, *, #15, .T. ) ;
#60 = ADVANCED_FACE ( 'NONE', ( #201, #239 ), #154, .T. ) ;
#61 = ADVANCED_FACE ( 'NONE', ( #221, #175 ), #62, .T. ) ;
#62 = CYLINDRICAL_SURFACE ( 'NONE', #241, 1.999999999999993561 ) ;
#63 = CIRCLE ( 'NONE', #232, 3.009999999999999787 ) ;
#64 = VERTEX_POINT ( 'NONE', #3 ) ;
#65 = ORIENTED_EDGE ( 'NONE', *, *, #103, .T. ) ;
#66 = APPROVAL_DATE_TIME ( #228, #92 ) ;
#67 = ORIENTED_EDGE ( 'NONE', *, *, #47, .T. ) ;
#68 = CLOSED_SHELL ( 'NONE', ( #91, #38, #123, #53 ) ) ;
#69 = AXIS2_PLACEMENT_3D ( 'NONE', #44, #109, #26 ) ;
#70 = APPROVAL_STATUS ( 'not_yet_approved' ) ;
#71 = CARTESIAN_POINT ( 'NONE',  ( 0.0000000000000000000, 0.0000000000000000000, 0.0000000000000000000 ) ) ;
#72 = CYLINDRICAL_SURFACE ( 'NONE', #164, 3.009999999999994458 ) ;
#73 = PLANE ( 'NONE',  #202 ) ;
#74 = FACE_OUTER_BOUND ( 'NONE', #215, .T. ) ;
#75 = CARTESIAN_POINT ( 'NONE',  ( 4.274441529627530779E-14, -1.105713295925077238E-15, 12.24248711305964754 ) ) ;
#76 = COORDINATED_UNIVERSAL_TIME_OFFSET ( 1, 0, .AHEAD. ) ;
#77 = DIRECTION ( 'NONE',  ( -3.491481338843133355E-15, 9.031770143711729009E-17, -1.000000000000000000 ) ) ;
#78 = CONICAL_SURFACE ( 'NONE', #209, 2.779059892324148517, 0.5235987755982969283 ) ;
#79 = CARTESIAN_POINT ( 'NONE',  ( 1.396592535537253539E-15, 3.009999999999998455, 0.4000000000000000222 ) ) ;
#80 = ORIENTED_EDGE ( 'NONE', *, *, #199, .T. ) ;
#81 = EDGE_LOOP ( 'NONE', ( #243 ) ) ;
#82 = PERSON ( 'UNSPECIFIED', 'UNSPECIFIED', 'UNSPECIFIED', ('UNSPECIFIED'), ('UNSPECIFIED'), ('UNSPECIFIED') ) ;
#83 = DATE_AND_TIME ( #41, #94 ) ;
#84 = ORIENTED_EDGE ( 'NONE', *, *, #47, .F. ) ;
#85 = CARTESIAN_POINT ( 'NONE',  ( 0.0000000000000000000, 2.779059892324148517, 0.0000000000000000000 ) ) ;
#86 = APPROVAL_STATUS ( 'not_yet_approved' ) ;
#87 = ORIENTED_EDGE ( 'NONE', *, *, #15, .F. ) ;
#88 = CARTESIAN_POINT ( 'NONE',  ( 4.274441529627530779E-14, 3.009999999999998455, 12.24248711305964754 ) ) ;
#89 = PERSON_AND_ORGANIZATION_ROLE ( 'design_owner' ) ;
#90 = VERTEX_POINT ( 'NONE', #85 ) ;
#91 = ADVANCED_FACE ( 'NONE', ( #191 ), #116, .T. ) ;
#92 = APPROVAL ( #86, 'UNSPECIFIED' ) ;
#93 = CIRCLE ( 'NONE', #120, 1.999999999999995337 ) ;
#94 = LOCAL_TIME ( 11, 4, 31.00000000000000000, #178 ) ;
#95 = VERTEX_POINT ( 'NONE', #79 ) ;
#96 = CARTESIAN_POINT ( 'NONE',  ( 4.274441529627531410E-14, 6.798629861856578442E-15, 12.24248711305964932 ) ) ;
#97 = CARTESIAN_POINT ( 'NONE',  ( 4.274441529627532041E-14, 3.009999999999998455, 12.24248711305965109 ) ) ;
#98 = PERSON_AND_ORGANIZATION ( #82, #238 ) ;
#99 = AXIS2_PLACEMENT_3D ( 'NONE', #30, #132, #171 ) ;
#100 = AXIS2_PLACEMENT_3D ( 'NONE', #19, #224, #34 ) ;
#101 = DIRECTION ( 'NONE',  ( 0.0000000000000000000, 1.000000000000000000, 0.0000000000000000000 ) ) ;
#102 = DIRECTION ( 'NONE',  ( -3.491481338843133355E-15, 9.031770143711729009E-17, -1.000000000000000000 ) ) ;
#103 = EDGE_CURVE ( 'NONE', #107, #107, #225, .T. ) ;
#104 = AXIS2_PLACEMENT_3D ( 'NONE', #144, #106, #33 ) ;
#105 = VERTEX_POINT ( 'NONE', #128 ) ;
#106 = DIRECTION ( 'NONE',  ( -3.491481338843133355E-15, -5.553307754438354815E-16, -1.000000000000000000 ) ) ;
#107 = VERTEX_POINT ( 'NONE', #10 ) ;
#108 = COORDINATED_UNIVERSAL_TIME_OFFSET ( 1, 0, .AHEAD. ) ;
#109 = DIRECTION ( 'NONE',  ( 0.0000000000000000000, 0.0000000000000000000, 1.000000000000000000 ) ) ;
#110 = EDGE_LOOP ( 'NONE', ( #45 ) ) ;
#111 = AXIS2_PLACEMENT_3D ( 'NONE', #140, #188, #54 ) ;
#112 = DIRECTION ( 'NONE',  ( -1.938927039347438159E-30, 1.000000000000000000, -5.553307754438354815E-16 ) ) ;
#113 = APPROVAL_ROLE ( '' ) ;
#114 = CALENDAR_DATE ( 2021, 26, 11 ) ;
#115 = FACE_OUTER_BOUND ( 'NONE', #156, .T. ) ;
#116 = PLANE ( 'NONE',  #184 ) ;
#117 = CARTESIAN_POINT ( 'NONE',  ( 4.274441529627530779E-14, -1.105713295925077238E-15, 12.24248711305964754 ) ) ;
#118 = DIRECTION ( 'NONE',  ( -3.491481338843133355E-15, 9.031770143711729009E-17, -1.000000000000000000 ) ) ;
#119 = DIRECTION ( 'NONE',  ( 1.938927039347438159E-30, -1.000000000000000000, 5.553307754438354815E-16 ) ) ;
#120 = AXIS2_PLACEMENT_3D ( 'NONE', #216, #48, #204 ) ;
#121 =( GEOMETRIC_REPRESENTATION_CONTEXT ( 3 ) GLOBAL_UNCERTAINTY_ASSIGNED_CONTEXT ( ( #186 ) ) GLOBAL_UNIT_ASSIGNED_CONTEXT ( ( #237, #218, #192 ) ) REPRESENTATION_CONTEXT ( 'NONE', 'WORKASPACE' ) );
#122 = CARTESIAN_POINT ( 'NONE',  ( 0.0000000000000000000, 0.0000000000000000000, 0.0000000000000000000 ) ) ;
#123 = ADVANCED_FACE ( 'NONE', ( #136, #169 ), #78, .T. ) ;
#124 = PERSON_AND_ORGANIZATION ( #82, #238 ) ;
#125 = PERSON_AND_ORGANIZATION_ROLE ( 'creator' ) ;
#126 = DIRECTION ( 'NONE',  ( 0.0000000000000000000, 1.000000000000000000, 0.0000000000000000000 ) ) ;
#127 = DIRECTION ( 'NONE',  ( -3.491481338843133355E-15, 9.031770143711729009E-17, -1.000000000000000000 ) ) ;
#128 = CARTESIAN_POINT ( 'NONE',  ( 4.274441529627530779E-14, 3.009999999999998455, 12.24248711305964754 ) ) ;
#129 = PLANE ( 'NONE',  #99 ) ;
#130 = AXIS2_PLACEMENT_3D ( 'NONE', #75, #127, #126 ) ;
#131 = LOCAL_TIME ( 11, 4, 31.00000000000000000, #31 ) ;
#132 = DIRECTION ( 'NONE',  ( -3.491481338843133355E-15, -5.553307754438354815E-16, -1.000000000000000000 ) ) ;
#133 = SHAPE_DEFINITION_REPRESENTATION ( #193, #168 ) ;
#134 = PERSON_AND_ORGANIZATION ( #82, #238 ) ;
#135 = DIRECTION ( 'NONE',  ( 0.0000000000000000000, 1.000000000000000000, 0.0000000000000000000 ) ) ;
#136 = FACE_OUTER_BOUND ( 'NONE', #1, .T. ) ;
#137 = AXIS2_PLACEMENT_3D ( 'NONE', #96, #183, #152 ) ;
#138 = CC_DESIGN_PERSON_AND_ORGANIZATION_ASSIGNMENT ( #211, #125, ( #214 ) ) ;
#139 = DIRECTION ( 'NONE',  ( -3.491481338843133355E-15, 9.031770143711729009E-17, -1.000000000000000000 ) ) ;
#140 = CARTESIAN_POINT ( 'NONE',  ( 2.793185071074506684E-13, -7.225416114969383207E-15, 80.00000000000000000 ) ) ;
#141 = ADVANCED_FACE ( 'NONE', ( #14, #74 ), #22, .T. ) ;
#142 = CIRCLE ( 'NONE', #137, 3.009999999999991349 ) ;
#143 = CC_DESIGN_DATE_AND_TIME_ASSIGNMENT ( #13, #153, ( #58 ) ) ;
#144 = CARTESIAN_POINT ( 'NONE',  ( 1.396592535537259259E-15, 2.221323101775351195E-16, 0.4000000000000016875 ) ) ;
#145 = EDGE_LOOP ( 'NONE', ( #80 ) ) ;
#146 = COORDINATED_UNIVERSAL_TIME_OFFSET ( 1, 0, .AHEAD. ) ;
#147 = PRODUCT_RELATED_PRODUCT_CATEGORY ( 'detail', '', ( #56 ) ) ;
#148 = APPROVAL_ROLE ( '' ) ;
#149 = DIRECTION ( 'NONE',  ( -3.491481338843133355E-15, -5.553307754438354815E-16, -1.000000000000000000 ) ) ;
#150 = VERTEX_POINT ( 'NONE', #88 ) ;
#151 = DIRECTION ( 'NONE',  ( -3.491481338843133355E-15, 9.031770143711729009E-17, -1.000000000000000000 ) ) ;
#152 = DIRECTION ( 'NONE',  ( -2.047500273102715202E-30, 1.000000000000000000, -5.763200916866485610E-16 ) ) ;
#153 = DATE_TIME_ROLE ( 'classification_date' ) ;
#154 = CONICAL_SURFACE ( 'NONE', #130, 3.009999999999999787, 0.5235987755982929315 ) ;
#155 = DIRECTION ( 'NONE',  ( 3.491481338843133355E-15, 5.553307754438354815E-16, 1.000000000000000000 ) ) ;
#156 = EDGE_LOOP ( 'NONE', ( #25 ) ) ;
#157 = CIRCLE ( 'NONE', #234, 1.999999999999991784 ) ;
#158 = EDGE_LOOP ( 'NONE', ( #197 ) ) ;
#159 = APPROVAL_ROLE ( '' ) ;
#160 = EDGE_LOOP ( 'NONE', ( #65 ) ) ;
#161 = APPLICATION_PROTOCOL_DEFINITION ( 'international standard', 'config_control_design', 1994, #21 ) ;
#162 = EDGE_LOOP ( 'NONE', ( #36 ) ) ;
#163 = VERTEX_POINT ( 'NONE', #198 ) ;
#164 = AXIS2_PLACEMENT_3D ( 'NONE', #71, #149, #112 ) ;
#165 = CIRCLE ( 'NONE', #100, 2.779059892324148517 ) ;
#166 = DESIGN_CONTEXT ( 'detailed design', #21, 'design' ) ;
#167 = DIRECTION ( 'NONE',  ( 3.491481338843133355E-15, 5.553307754438354815E-16, 1.000000000000000000 ) ) ;
#168 = ADVANCED_BREP_SHAPE_REPRESENTATION ( '321505', ( #179, #177, #69 ), #121 ) ;
#169 = FACE_BOUND ( 'NONE', #46, .T. ) ;
#170 = CC_DESIGN_PERSON_AND_ORGANIZATION_ASSIGNMENT ( #8, #89, ( #56 ) ) ;
#171 = DIRECTION ( 'NONE',  ( -1.938927039347438159E-30, 1.000000000000000000, -5.553307754438354815E-16 ) ) ;
#172 = APPROVAL_STATUS ( 'not_yet_approved' ) ;
#173 = ADVANCED_FACE ( 'NONE', ( #115 ), #223, .T. ) ;
#174 = CLOSED_SHELL ( 'NONE', ( #173, #141, #61, #60, #23 ) ) ;
#175 = FACE_OUTER_BOUND ( 'NONE', #7, .T. ) ;
#176 = APPROVAL ( #70, 'UNSPECIFIED' ) ;
#177 = MANIFOLD_SOLID_BREP ( 'Corps-Déplacer/Copier1[2]', #68 ) ;
#178 = COORDINATED_UNIVERSAL_TIME_OFFSET ( 1, 0, .AHEAD. ) ;
#179 = MANIFOLD_SOLID_BREP ( 'Corps-Déplacer/Copier1[1]', #174 ) ;
#180 = DATE_AND_TIME ( #229, #210 ) ;
#181 = ORIENTED_EDGE ( 'NONE', *, *, #32, .T. ) ;
#182 = APPLICATION_PROTOCOL_DEFINITION ( 'international standard', 'config_control_design', 1994, #11 ) ;
#183 = DIRECTION ( 'NONE',  ( -3.491481338843133355E-15, -5.553307754438354815E-16, -1.000000000000000000 ) ) ;
#184 = AXIS2_PLACEMENT_3D ( 'NONE', #16, #155, #119 ) ;
#185 = CC_DESIGN_PERSON_AND_ORGANIZATION_ASSIGNMENT ( #134, #29, ( #58 ) ) ;
#186 = UNCERTAINTY_MEASURE_WITH_UNIT (LENGTH_MEASURE( 1.000000000000000082E-05 ), #237, 'distance_accuracy_value', 'NONE');
#187 = FACE_OUTER_BOUND ( 'NONE', #158, .T. ) ;
#188 = DIRECTION ( 'NONE',  ( 3.491481338843133355E-15, -9.031770143711729009E-17, 1.000000000000000000 ) ) ;
#189 = AXIS2_PLACEMENT_3D ( 'NONE', #17, #102, #20 ) ;
#190 = CC_DESIGN_APPROVAL ( #39, ( #58 ) ) ;
#191 = FACE_OUTER_BOUND ( 'NONE', #81, .T. ) ;
#192 =( NAMED_UNIT ( * ) SI_UNIT ( $, .STERADIAN. ) SOLID_ANGLE_UNIT ( ) );
#193 = PRODUCT_DEFINITION_SHAPE ( 'NONE', 'NONE',  #214 ) ;
#194 = PRODUCT_DEFINITION_FORMATION_WITH_SPECIFIED_SOURCE ( 'ANY', '', #56, .NOT_KNOWN. ) ;
#195 = PERSON_AND_ORGANIZATION_ROLE ( 'creator' ) ;
#196 = EDGE_LOOP ( 'NONE', ( #87 ) ) ;
#197 = ORIENTED_EDGE ( 'NONE', *, *, #37, .T. ) ;
#198 = CARTESIAN_POINT ( 'NONE',  ( 4.885231259955590439E-14, 1.999999999999990452, 13.99185842870425134 ) ) ;
#199 = EDGE_CURVE ( 'NONE', #90, #90, #165, .T. ) ;
#200 = CC_DESIGN_PERSON_AND_ORGANIZATION_ASSIGNMENT ( #24, #203, ( #194 ) ) ;
#201 = FACE_BOUND ( 'NONE', #110, .T. ) ;
#202 = AXIS2_PLACEMENT_3D ( 'NONE', #97, #139, #51 ) ;
#203 = PERSON_AND_ORGANIZATION_ROLE ( 'design_supplier' ) ;
#204 = DIRECTION ( 'NONE',  ( 0.0000000000000000000, 1.000000000000000000, 0.0000000000000000000 ) ) ;
#205 = DIRECTION ( 'NONE',  ( -3.491481338843133355E-15, 9.031770143711729009E-17, -1.000000000000000000 ) ) ;
#206 = CC_DESIGN_APPROVAL ( #92, ( #194 ) ) ;
#207 = EDGE_CURVE ( 'NONE', #163, #163, #157, .T. ) ;
#208 = CC_DESIGN_DATE_AND_TIME_ASSIGNMENT ( #83, #42, ( #214 ) ) ;
#209 = AXIS2_PLACEMENT_3D ( 'NONE', #231, #167, #55 ) ;
#210 = LOCAL_TIME ( 11, 4, 31.00000000000000000, #108 ) ;
#211 = PERSON_AND_ORGANIZATION ( #82, #238 ) ;
#212 = PERSON_AND_ORGANIZATION ( #82, #238 ) ;
#213 = APPROVAL_PERSON_ORGANIZATION ( #124, #92, #159 ) ;
#214 = PRODUCT_DEFINITION ( 'UNKNOWN', '', #194, #166 ) ;
#215 = EDGE_LOOP ( 'NONE', ( #84 ) ) ;
#216 = CARTESIAN_POINT ( 'NONE',  ( 2.779219145719134403E-13, -7.189289034394536528E-15, 79.60000000000000853 ) ) ;
#217 = FACE_OUTER_BOUND ( 'NONE', #145, .T. ) ;
#218 =( NAMED_UNIT ( * ) PLANE_ANGLE_UNIT ( ) SI_UNIT ( $, .RADIAN. ) );
#219 = DATE_AND_TIME ( #220, #18 ) ;
#220 = CALENDAR_DATE ( 2021, 26, 11 ) ;
#221 = FACE_OUTER_BOUND ( 'NONE', #227, .T. ) ;
#222 = CC_DESIGN_APPROVAL ( #176, ( #214 ) ) ;
#223 = PLANE ( 'NONE',  #111 ) ;
#224 = DIRECTION ( 'NONE',  ( -3.491481338843133355E-15, -5.553307754438354815E-16, -1.000000000000000000 ) ) ;
#225 = CIRCLE ( 'NONE', #189, 1.599999999999994982 ) ;
#226 = APPROVAL_PERSON_ORGANIZATION ( #233, #176, #148 ) ;
#227 = EDGE_LOOP ( 'NONE', ( #67 ) ) ;
#228 = DATE_AND_TIME ( #6, #9 ) ;
#229 = CALENDAR_DATE ( 2021, 26, 11 ) ;
#230 = ORIENTED_EDGE ( 'NONE', *, *, #199, .F. ) ;
#231 = CARTESIAN_POINT ( 'NONE',  ( 5.388394369193271571E-30, 8.570405890906975645E-31, 1.543297485009231360E-15 ) ) ;
#232 = AXIS2_PLACEMENT_3D ( 'NONE', #117, #151, #27 ) ;
#233 = PERSON_AND_ORGANIZATION ( #82, #238 ) ;
#234 = AXIS2_PLACEMENT_3D ( 'NONE', #57, #118, #101 ) ;
#235 = MECHANICAL_CONTEXT ( 'NONE', #11, 'mechanical' ) ;
#236 = FACE_OUTER_BOUND ( 'NONE', #196, .T. ) ;
#237 =( LENGTH_UNIT ( ) NAMED_UNIT ( * ) SI_UNIT ( .MILLI., .METRE. ) );
#238 = ORGANIZATION ( 'UNSPECIFIED', 'UNSPECIFIED', '' ) ;
#239 = FACE_OUTER_BOUND ( 'NONE', #162, .T. ) ;
#240 = CC_DESIGN_PERSON_AND_ORGANIZATION_ASSIGNMENT ( #212, #195, ( #194 ) ) ;
#241 = AXIS2_PLACEMENT_3D ( 'NONE', #122, #205, #242 ) ;
#242 = DIRECTION ( 'NONE',  ( 3.153425691349006731E-31, 1.000000000000000000, 9.031770143711729009E-17 ) ) ;
#243 = ORIENTED_EDGE ( 'NONE', *, *, #37, .F. ) ;
ENDSEC;
END-ISO-10303-21;
