ISO-10303-21;
HEADER;
FILE_DESCRIPTION (( 'STEP AP203' ),
    '1' );
FILE_NAME ('321504.step',
    '2021-11-26T10:04:30',
    ( '' ),
    ( '' ),
    'SwSTEP 2.0',
    'SolidWorks 2019',
    '' );
FILE_SCHEMA (( 'CONFIG_CONTROL_DESIGN' ));
ENDSEC;

DATA;
#1 = AXIS2_PLACEMENT_3D ( 'NONE', #172, #241, #35 ) ;
#2 = CC_DESIGN_PERSON_AND_ORGANIZATION_ASSIGNMENT ( #70, #201, ( #11 ) ) ;
#3 = PRODUCT ( '321504', '321504', '', ( #160 ) ) ;
#4 = APPROVAL_STATUS ( 'not_yet_approved' ) ;
#5 = DIRECTION ( 'NONE',  ( -2.051589820918498913E-30, 1.000000000000000000, -5.774711970628533953E-16 ) ) ;
#6 = FACE_OUTER_BOUND ( 'NONE', #110, .T. ) ;
#7 = EDGE_LOOP ( 'NONE', ( #47 ) ) ;
#8 = EDGE_CURVE ( 'NONE', #224, #224, #213, .T. ) ;
#9 = CALENDAR_DATE ( 2021, 26, 11 ) ;
#10 = CC_DESIGN_DATE_AND_TIME_ASSIGNMENT ( #131, #141, ( #242 ) ) ;
#11 = PRODUCT_DEFINITION_FORMATION_WITH_SPECIFIED_SOURCE ( 'ANY', '', #3, .NOT_KNOWN. ) ;
#12 = ORIENTED_EDGE ( 'NONE', *, *, #205, .F. ) ;
#13 = ADVANCED_FACE ( 'NONE', ( #49, #138 ), #89, .T. ) ;
#14 = ORIENTED_EDGE ( 'NONE', *, *, #177, .T. ) ;
#15 = ORIENTED_EDGE ( 'NONE', *, *, #155, .F. ) ;
#16 = CARTESIAN_POINT ( 'NONE',  ( 1.396592535537253539E-15, 3.003999999999998671, 0.4000000000000000222 ) ) ;
#17 = FACE_OUTER_BOUND ( 'NONE', #166, .T. ) ;
#18 = DIRECTION ( 'NONE',  ( -3.491481338843133355E-15, 9.031770143711729009E-17, -1.000000000000000000 ) ) ;
#19 = CONICAL_SURFACE ( 'NONE', #230, 2.773059892324149178, 0.5235987755982969283 ) ;
#20 =( NAMED_UNIT ( * ) SI_UNIT ( $, .STERADIAN. ) SOLID_ANGLE_UNIT ( ) );
#21 = CARTESIAN_POINT ( 'NONE',  ( 4.885231259955590439E-14, 1.999999999999990452, 13.99185842870425134 ) ) ;
#22 = AXIS2_PLACEMENT_3D ( 'NONE', #42, #117, #221 ) ;
#23 = CC_DESIGN_PERSON_AND_ORGANIZATION_ASSIGNMENT ( #181, #198, ( #116 ) ) ;
#24 = DIRECTION ( 'NONE',  ( -1.923365457111088921E-30, 1.000000000000000000, -5.594252221546381482E-16 ) ) ;
#25 = CLOSED_SHELL ( 'NONE', ( #176, #243, #96, #194, #77 ) ) ;
#26 = APPROVAL_PERSON_ORGANIZATION ( #98, #31, #85 ) ;
#27 = ORIENTED_EDGE ( 'NONE', *, *, #72, .T. ) ;
#28 = APPROVAL_DATE_TIME ( #199, #31 ) ;
#29 = ORIENTED_EDGE ( 'NONE', *, *, #155, .T. ) ;
#30 = PERSON_AND_ORGANIZATION ( #136, #135 ) ;
#31 = APPROVAL ( #4, 'UNSPECIFIED' ) ;
#32 = CALENDAR_DATE ( 2021, 26, 11 ) ;
#33 = FACE_OUTER_BOUND ( 'NONE', #113, .T. ) ;
#34 = DIRECTION ( 'NONE',  ( 0.0000000000000000000, 1.000000000000000000, 0.0000000000000000000 ) ) ;
#35 = DIRECTION ( 'NONE',  ( 1.936557223351849563E-30, -1.000000000000000000, 5.546520331663889469E-16 ) ) ;
#36 = CLOSED_SHELL ( 'NONE', ( #129, #13, #151, #58 ) ) ;
#37 = AXIS2_PLACEMENT_3D ( 'NONE', #94, #186, #34 ) ;
#38 = DIRECTION ( 'NONE',  ( -3.491481338843133355E-15, -5.546520331663889469E-16, -1.000000000000000000 ) ) ;
#39 = VERTEX_POINT ( 'NONE', #16 ) ;
#40 = DIRECTION ( 'NONE',  ( 3.153425691349006731E-31, 1.000000000000000000, 9.031770143711729009E-17 ) ) ;
#41 = CARTESIAN_POINT ( 'NONE',  ( 6.842277657836020854E-46, 2.773059892324149178, 0.0000000000000000000 ) ) ;
#42 = CARTESIAN_POINT ( 'NONE',  ( 2.779219145719134403E-13, -7.189289034394536528E-15, 79.60000000000000853 ) ) ;
#43 = CARTESIAN_POINT ( 'NONE',  ( 2.779219145719134403E-13, -7.189289034394536528E-15, 79.60000000000000853 ) ) ;
#44 = APPLICATION_CONTEXT ( 'configuration controlled 3d designs of mechanical parts and assemblies' ) ;
#45 = CIRCLE ( 'NONE', #237, 3.004000000000000004 ) ;
#46 = PRODUCT_DEFINITION_SHAPE ( 'NONE', 'NONE',  #116 ) ;
#47 = ORIENTED_EDGE ( 'NONE', *, *, #205, .T. ) ;
#48 = DATE_TIME_ROLE ( 'creation_date' ) ;
#49 = FACE_OUTER_BOUND ( 'NONE', #203, .T. ) ;
#50 = COORDINATED_UNIVERSAL_TIME_OFFSET ( 1, 0, .AHEAD. ) ;
#51 = CC_DESIGN_DATE_AND_TIME_ASSIGNMENT ( #103, #48, ( #116 ) ) ;
#52 = CARTESIAN_POINT ( 'NONE',  ( -2.685094582633816547E-30, 2.773059892324149178, -7.690416536848784150E-16 ) ) ;
#53 = ORIENTED_EDGE ( 'NONE', *, *, #8, .T. ) ;
#54 = AXIS2_PLACEMENT_3D ( 'NONE', #43, #106, #146 ) ;
#55 = FACE_BOUND ( 'NONE', #139, .T. ) ;
#56 = FACE_OUTER_BOUND ( 'NONE', #212, .T. ) ;
#57 = DIRECTION ( 'NONE',  ( 0.0000000000000000000, 1.000000000000000000, 0.0000000000000000000 ) ) ;
#58 = ADVANCED_FACE ( 'NONE', ( #142 ), #216, .T. ) ;
#59 = VERTEX_POINT ( 'NONE', #132 ) ;
#60 =( LENGTH_UNIT ( ) NAMED_UNIT ( * ) SI_UNIT ( .MILLI., .METRE. ) );
#61 =( NAMED_UNIT ( * ) PLANE_ANGLE_UNIT ( ) SI_UNIT ( $, .RADIAN. ) );
#62 = MANIFOLD_SOLID_BREP ( 'Corps-Déplacer/Copier1[2]', #36 ) ;
#63 = LOCAL_TIME ( 11, 4, 30.00000000000000000, #50 ) ;
#64 = MANIFOLD_SOLID_BREP ( 'Corps-Déplacer/Copier1[1]', #25 ) ;
#65 = COORDINATED_UNIVERSAL_TIME_OFFSET ( 1, 0, .AHEAD. ) ;
#66 = DIRECTION ( 'NONE',  ( -3.491481338843133355E-15, 9.031770143711729009E-17, -1.000000000000000000 ) ) ;
#67 = CALENDAR_DATE ( 2021, 26, 11 ) ;
#68 = CYLINDRICAL_SURFACE ( 'NONE', #227, 1.999999999999993561 ) ;
#69 = ORIENTED_EDGE ( 'NONE', *, *, #72, .F. ) ;
#70 = PERSON_AND_ORGANIZATION ( #136, #135 ) ;
#71 = PERSON_AND_ORGANIZATION_ROLE ( 'design_owner' ) ;
#72 = EDGE_CURVE ( 'NONE', #226, #226, #219, .T. ) ;
#73 = EDGE_LOOP ( 'NONE', ( #15 ) ) ;
#74 = ORIENTED_EDGE ( 'NONE', *, *, #92, .F. ) ;
#75 = CC_DESIGN_SECURITY_CLASSIFICATION ( #242, ( #11 ) ) ;
#76 = CARTESIAN_POINT ( 'NONE',  ( 4.278069983471063279E-14, 3.003999999999998671, 12.25287941790505997 ) ) ;
#77 = ADVANCED_FACE ( 'NONE', ( #56 ), #197, .T. ) ;
#78 = CARTESIAN_POINT ( 'NONE',  ( 5.370189165267633094E-30, 8.531010336119195811E-31, 1.538083307369756830E-15 ) ) ;
#79 = DIRECTION ( 'NONE',  ( -1.936557223351849213E-30, 1.000000000000000000, -5.546520331663889469E-16 ) ) ;
#80 = LOCAL_TIME ( 11, 4, 30.00000000000000000, #158 ) ;
#81 = PERSON_AND_ORGANIZATION_ROLE ( 'classification_officer' ) ;
#82 = CARTESIAN_POINT ( 'NONE',  ( 0.0000000000000000000, 0.0000000000000000000, 0.0000000000000000000 ) ) ;
#83 = AXIS2_PLACEMENT_3D ( 'NONE', #78, #38, #79 ) ;
#84 = ADVANCED_BREP_SHAPE_REPRESENTATION ( '321504', ( #64, #62, #148 ), #154 ) ;
#85 = APPROVAL_ROLE ( '' ) ;
#86 = APPROVAL_ROLE ( '' ) ;
#87 = DIRECTION ( 'NONE',  ( 0.0000000000000000000, 0.0000000000000000000, 1.000000000000000000 ) ) ;
#88 = AXIS2_PLACEMENT_3D ( 'NONE', #126, #178, #5 ) ;
#89 = CYLINDRICAL_SURFACE ( 'NONE', #115, 3.003999999999995563 ) ;
#90 = PERSON_AND_ORGANIZATION ( #136, #135 ) ;
#91 = DIRECTION ( 'NONE',  ( -3.491481338843133355E-15, -5.546520331663889469E-16, -1.000000000000000000 ) ) ;
#92 = EDGE_CURVE ( 'NONE', #171, #171, #214, .T. ) ;
#93 = CONICAL_SURFACE ( 'NONE', #37, 3.004000000000000004, 0.5235987755982929315 ) ;
#94 = CARTESIAN_POINT ( 'NONE',  ( 4.278069983471063279E-14, -1.106651905011348749E-15, 12.25287941790505997 ) ) ;
#95 = PRODUCT_RELATED_PRODUCT_CATEGORY ( 'detail', '', ( #3 ) ) ;
#96 = ADVANCED_FACE ( 'NONE', ( #211, #6 ), #68, .T. ) ;
#97 = AXIS2_PLACEMENT_3D ( 'NONE', #202, #102, #40 ) ;
#98 = PERSON_AND_ORGANIZATION ( #136, #135 ) ;
#99 = APPLICATION_PROTOCOL_DEFINITION ( 'international standard', 'config_control_design', 1994, #217 ) ;
#100 = LOCAL_TIME ( 11, 4, 30.00000000000000000, #175 ) ;
#101 = CALENDAR_DATE ( 2021, 26, 11 ) ;
#102 = DIRECTION ( 'NONE',  ( -3.491481338843133355E-15, 9.031770143711729009E-17, -1.000000000000000000 ) ) ;
#103 = DATE_AND_TIME ( #9, #118 ) ;
#104 = ORIENTED_EDGE ( 'NONE', *, *, #173, .T. ) ;
#105 = APPROVAL_STATUS ( 'not_yet_approved' ) ;
#106 = DIRECTION ( 'NONE',  ( -3.491481338843133355E-15, 9.031770143711729009E-17, -1.000000000000000000 ) ) ;
#107 = AXIS2_PLACEMENT_3D ( 'NONE', #187, #66, #180 ) ;
#108 = ORIENTED_EDGE ( 'NONE', *, *, #92, .T. ) ;
#109 = FACE_OUTER_BOUND ( 'NONE', #156, .T. ) ;
#110 = EDGE_LOOP ( 'NONE', ( #233 ) ) ;
#111 = FACE_OUTER_BOUND ( 'NONE', #7, .T. ) ;
#112 = CARTESIAN_POINT ( 'NONE',  ( 1.396592535537259259E-15, 2.218608132665565254E-16, 0.4000000000000016875 ) ) ;
#113 = EDGE_LOOP ( 'NONE', ( #74 ) ) ;
#114 = VERTEX_POINT ( 'NONE', #76 ) ;
#115 = AXIS2_PLACEMENT_3D ( 'NONE', #128, #185, #120 ) ;
#116 = PRODUCT_DEFINITION ( 'UNKNOWN', '', #11, #188 ) ;
#117 = DIRECTION ( 'NONE',  ( -3.491481338843133355E-15, 9.031770143711729009E-17, -1.000000000000000000 ) ) ;
#118 = LOCAL_TIME ( 11, 4, 30.00000000000000000, #122 ) ;
#119 = CC_DESIGN_PERSON_AND_ORGANIZATION_ASSIGNMENT ( #30, #81, ( #242 ) ) ;
#120 = DIRECTION ( 'NONE',  ( -1.936557223351849213E-30, 1.000000000000000000, -5.546520331663889469E-16 ) ) ;
#121 = EDGE_LOOP ( 'NONE', ( #29 ) ) ;
#122 = COORDINATED_UNIVERSAL_TIME_OFFSET ( 1, 0, .AHEAD. ) ;
#123 = DATE_AND_TIME ( #32, #63 ) ;
#124 = DIRECTION ( 'NONE',  ( 1.000000000000000000, 0.0000000000000000000, 0.0000000000000000000 ) ) ;
#125 = DIRECTION ( 'NONE',  ( -3.491481338843133355E-15, 9.031770143711729009E-17, -1.000000000000000000 ) ) ;
#126 = CARTESIAN_POINT ( 'NONE',  ( 4.278069983471063910E-14, 6.796084481283643700E-15, 12.25287941790506174 ) ) ;
#127 = AXIS2_PLACEMENT_3D ( 'NONE', #236, #125, #220 ) ;
#128 = CARTESIAN_POINT ( 'NONE',  ( 0.0000000000000000000, 0.0000000000000000000, 0.0000000000000000000 ) ) ;
#129 = ADVANCED_FACE ( 'NONE', ( #33 ), #174, .T. ) ;
#130 = DIRECTION ( 'NONE',  ( 3.153425691349006731E-31, 1.000000000000000000, 9.031770143711729009E-17 ) ) ;
#131 = DATE_AND_TIME ( #144, #100 ) ;
#132 = CARTESIAN_POINT ( 'NONE',  ( 2.779219145719134403E-13, 1.999999999999988010, 79.60000000000000853 ) ) ;
#133 = LOCAL_TIME ( 11, 4, 30.00000000000000000, #65 ) ;
#134 = CARTESIAN_POINT ( 'NONE',  ( 4.278069983471063279E-14, -1.106651905011348749E-15, 12.25287941790505997 ) ) ;
#135 = ORGANIZATION ( 'UNSPECIFIED', 'UNSPECIFIED', '' ) ;
#136 = PERSON ( 'UNSPECIFIED', 'UNSPECIFIED', 'UNSPECIFIED', ('UNSPECIFIED'), ('UNSPECIFIED'), ('UNSPECIFIED') ) ;
#137 = APPROVAL_PERSON_ORGANIZATION ( #159, #157, #179 ) ;
#138 = FACE_OUTER_BOUND ( 'NONE', #184, .T. ) ;
#139 = EDGE_LOOP ( 'NONE', ( #53 ) ) ;
#140 = APPROVAL_DATE_TIME ( #231, #225 ) ;
#141 = DATE_TIME_ROLE ( 'classification_date' ) ;
#142 = FACE_OUTER_BOUND ( 'NONE', #121, .T. ) ;
#143 = EDGE_LOOP ( 'NONE', ( #104 ) ) ;
#144 = CALENDAR_DATE ( 2021, 26, 11 ) ;
#145 = DIRECTION ( 'NONE',  ( 1.936557223351848863E-30, -1.000000000000000000, 5.546520331663889469E-16 ) ) ;
#146 = DIRECTION ( 'NONE',  ( 0.0000000000000000000, 1.000000000000000000, 0.0000000000000000000 ) ) ;
#147 = FACE_BOUND ( 'NONE', #73, .T. ) ;
#148 = AXIS2_PLACEMENT_3D ( 'NONE', #191, #87, #124 ) ;
#149 = DIRECTION ( 'NONE',  ( 3.491481338843133355E-15, -9.031770143711729009E-17, 1.000000000000000000 ) ) ;
#150 = CARTESIAN_POINT ( 'NONE',  ( 2.793185071074506684E-13, 1.599999999999987876, 80.00000000000000000 ) ) ;
#151 = ADVANCED_FACE ( 'NONE', ( #111, #147 ), #19, .T. ) ;
#152 = AXIS2_PLACEMENT_3D ( 'NONE', #112, #238, #24 ) ;
#153 = CC_DESIGN_PERSON_AND_ORGANIZATION_ASSIGNMENT ( #235, #71, ( #3 ) ) ;
#154 =( GEOMETRIC_REPRESENTATION_CONTEXT ( 3 ) GLOBAL_UNCERTAINTY_ASSIGNED_CONTEXT ( ( #165 ) ) GLOBAL_UNIT_ASSIGNED_CONTEXT ( ( #60, #61, #20 ) ) REPRESENTATION_CONTEXT ( 'NONE', 'WORKASPACE' ) );
#155 = EDGE_CURVE ( 'NONE', #167, #167, #189, .T. ) ;
#156 = EDGE_LOOP ( 'NONE', ( #69 ) ) ;
#157 = APPROVAL ( #232, 'UNSPECIFIED' ) ;
#158 = COORDINATED_UNIVERSAL_TIME_OFFSET ( 1, 0, .AHEAD. ) ;
#159 = PERSON_AND_ORGANIZATION ( #136, #135 ) ;
#160 = MECHANICAL_CONTEXT ( 'NONE', #217, 'mechanical' ) ;
#161 = CIRCLE ( 'NONE', #152, 3.003999999999998227 ) ;
#162 = PERSON_AND_ORGANIZATION_ROLE ( 'design_supplier' ) ;
#163 = SHAPE_DEFINITION_REPRESENTATION ( #46, #84 ) ;
#164 = CC_DESIGN_PERSON_AND_ORGANIZATION_ASSIGNMENT ( #234, #162, ( #11 ) ) ;
#165 = UNCERTAINTY_MEASURE_WITH_UNIT (LENGTH_MEASURE( 1.000000000000000082E-05 ), #60, 'distance_accuracy_value', 'NONE');
#166 = EDGE_LOOP ( 'NONE', ( #218 ) ) ;
#167 = VERTEX_POINT ( 'NONE', #41 ) ;
#168 = DIRECTION ( 'NONE',  ( -1.936557223351849563E-30, 1.000000000000000000, -5.546520331663889469E-16 ) ) ;
#169 = CARTESIAN_POINT ( 'NONE',  ( 5.370189165267633094E-30, 8.531010336119195811E-31, 1.538083307369756830E-15 ) ) ;
#170 = CC_DESIGN_APPROVAL ( #31, ( #116 ) ) ;
#171 = VERTEX_POINT ( 'NONE', #229 ) ;
#172 = CARTESIAN_POINT ( 'NONE',  ( 4.278069983471063910E-14, 6.796084481283642911E-15, 12.25287941790506174 ) ) ;
#173 = EDGE_CURVE ( 'NONE', #59, #59, #193, .T. ) ;
#174 = PLANE ( 'NONE',  #1 ) ;
#175 = COORDINATED_UNIVERSAL_TIME_OFFSET ( 1, 0, .AHEAD. ) ;
#176 = ADVANCED_FACE ( 'NONE', ( #109 ), #209, .T. ) ;
#177 = EDGE_CURVE ( 'NONE', #114, #114, #45, .T. ) ;
#178 = DIRECTION ( 'NONE',  ( -3.491481338843133355E-15, -5.546520331663889469E-16, -1.000000000000000000 ) ) ;
#179 = APPROVAL_ROLE ( '' ) ;
#180 = DIRECTION ( 'NONE',  ( 0.0000000000000000000, 1.000000000000000000, 0.0000000000000000000 ) ) ;
#181 = PERSON_AND_ORGANIZATION ( #136, #135 ) ;
#182 = APPROVAL_DATE_TIME ( #123, #157 ) ;
#183 = APPROVAL_PERSON_ORGANIZATION ( #90, #225, #86 ) ;
#184 = EDGE_LOOP ( 'NONE', ( #12 ) ) ;
#185 = DIRECTION ( 'NONE',  ( -3.491481338843133355E-15, -5.546520331663889469E-16, -1.000000000000000000 ) ) ;
#186 = DIRECTION ( 'NONE',  ( -3.491481338843133355E-15, 9.031770143711729009E-17, -1.000000000000000000 ) ) ;
#187 = CARTESIAN_POINT ( 'NONE',  ( 4.885231259955590439E-14, -1.263712492114123682E-15, 13.99185842870425134 ) ) ;
#188 = DESIGN_CONTEXT ( 'detailed design', #44, 'design' ) ;
#189 = CIRCLE ( 'NONE', #83, 2.773059892324149178 ) ;
#190 = DIRECTION ( 'NONE',  ( -3.491481338843133355E-15, 9.031770143711729009E-17, -1.000000000000000000 ) ) ;
#191 = CARTESIAN_POINT ( 'NONE',  ( 0.0000000000000000000, 0.0000000000000000000, 0.0000000000000000000 ) ) ;
#192 = FACE_OUTER_BOUND ( 'NONE', #204, .T. ) ;
#193 = CIRCLE ( 'NONE', #54, 1.999999999999995337 ) ;
#194 = ADVANCED_FACE ( 'NONE', ( #55, #17 ), #93, .T. ) ;
#195 = AXIS2_PLACEMENT_3D ( 'NONE', #206, #149, #239 ) ;
#196 = APPLICATION_PROTOCOL_DEFINITION ( 'international standard', 'config_control_design', 1994, #44 ) ;
#197 = PLANE ( 'NONE',  #97 ) ;
#198 = PERSON_AND_ORGANIZATION_ROLE ( 'creator' ) ;
#199 = DATE_AND_TIME ( #101, #133 ) ;
#200 = EDGE_LOOP ( 'NONE', ( #27 ) ) ;
#201 = PERSON_AND_ORGANIZATION_ROLE ( 'creator' ) ;
#202 = CARTESIAN_POINT ( 'NONE',  ( 4.278069983471063910E-14, 3.003999999999998671, 12.25287941790506174 ) ) ;
#203 = EDGE_LOOP ( 'NONE', ( #108 ) ) ;
#204 = EDGE_LOOP ( 'NONE', ( #228 ) ) ;
#205 = EDGE_CURVE ( 'NONE', #39, #39, #161, .T. ) ;
#206 = CARTESIAN_POINT ( 'NONE',  ( 2.793185071074506684E-13, -7.225416114969383207E-15, 80.00000000000000000 ) ) ;
#207 = AXIS2_PLACEMENT_3D ( 'NONE', #52, #91, #168 ) ;
#208 = FACE_BOUND ( 'NONE', #200, .T. ) ;
#209 = PLANE ( 'NONE',  #195 ) ;
#210 = CC_DESIGN_APPROVAL ( #225, ( #11 ) ) ;
#211 = FACE_OUTER_BOUND ( 'NONE', #143, .T. ) ;
#212 = EDGE_LOOP ( 'NONE', ( #14 ) ) ;
#213 = CIRCLE ( 'NONE', #107, 1.999999999999991784 ) ;
#214 = CIRCLE ( 'NONE', #88, 3.003999999999992010 ) ;
#215 = SECURITY_CLASSIFICATION_LEVEL ( 'unclassified' ) ;
#216 = PLANE ( 'NONE',  #207 ) ;
#217 = APPLICATION_CONTEXT ( 'configuration controlled 3d designs of mechanical parts and assemblies' ) ;
#218 = ORIENTED_EDGE ( 'NONE', *, *, #177, .F. ) ;
#219 = CIRCLE ( 'NONE', #127, 1.599999999999994982 ) ;
#220 = DIRECTION ( 'NONE',  ( 0.0000000000000000000, 1.000000000000000000, 0.0000000000000000000 ) ) ;
#221 = DIRECTION ( 'NONE',  ( 0.0000000000000000000, 1.000000000000000000, 0.0000000000000000000 ) ) ;
#222 = CONICAL_SURFACE ( 'NONE', #22, 1.999999999999995337, 0.7853981633974516097 ) ;
#223 = CC_DESIGN_APPROVAL ( #157, ( #242 ) ) ;
#224 = VERTEX_POINT ( 'NONE', #21 ) ;
#225 = APPROVAL ( #105, 'UNSPECIFIED' ) ;
#226 = VERTEX_POINT ( 'NONE', #150 ) ;
#227 = AXIS2_PLACEMENT_3D ( 'NONE', #82, #190, #130 ) ;
#228 = ORIENTED_EDGE ( 'NONE', *, *, #173, .F. ) ;
#229 = CARTESIAN_POINT ( 'NONE',  ( 4.278069983471063279E-14, 3.003999999999998671, 12.25287941790505997 ) ) ;
#230 = AXIS2_PLACEMENT_3D ( 'NONE', #169, #240, #145 ) ;
#231 = DATE_AND_TIME ( #67, #80 ) ;
#232 = APPROVAL_STATUS ( 'not_yet_approved' ) ;
#233 = ORIENTED_EDGE ( 'NONE', *, *, #8, .F. ) ;
#234 = PERSON_AND_ORGANIZATION ( #136, #135 ) ;
#235 = PERSON_AND_ORGANIZATION ( #136, #135 ) ;
#236 = CARTESIAN_POINT ( 'NONE',  ( 2.793185071074506684E-13, -7.225416114969383207E-15, 80.00000000000000000 ) ) ;
#237 = AXIS2_PLACEMENT_3D ( 'NONE', #134, #18, #57 ) ;
#238 = DIRECTION ( 'NONE',  ( -3.491481338843133355E-15, -5.546520331663889469E-16, -1.000000000000000000 ) ) ;
#239 = DIRECTION ( 'NONE',  ( -3.153425691349006731E-31, -1.000000000000000000, -9.031770143711729009E-17 ) ) ;
#240 = DIRECTION ( 'NONE',  ( 3.491481338843133355E-15, 5.546520331663889469E-16, 1.000000000000000000 ) ) ;
#241 = DIRECTION ( 'NONE',  ( 3.491481338843133355E-15, 5.546520331663889469E-16, 1.000000000000000000 ) ) ;
#242 = SECURITY_CLASSIFICATION ( '', '', #215 ) ;
#243 = ADVANCED_FACE ( 'NONE', ( #208, #192 ), #222, .T. ) ;
ENDSEC;
END-ISO-10303-21;
