ISO-10303-21;
HEADER;
FILE_DESCRIPTION (( 'STEP AP203' ),
    '1' );
FILE_NAME ('321503.step',
    '2021-11-26T10:04:29',
    ( '' ),
    ( '' ),
    'SwSTEP 2.0',
    'SolidWorks 2019',
    '' );
FILE_SCHEMA (( 'CONFIG_CONTROL_DESIGN' ));
ENDSEC;

DATA;
#1 = FACE_OUTER_BOUND ( 'NONE', #73, .T. ) ;
#2 = FACE_BOUND ( 'NONE', #35, .T. ) ;
#3 = CARTESIAN_POINT ( 'NONE',  ( 4.281093695007341414E-14, -1.107434079249908439E-15, 12.26153967194290573 ) ) ;
#4 = EDGE_LOOP ( 'NONE', ( #156 ) ) ;
#5 = CARTESIAN_POINT ( 'NONE',  ( 2.793185071074506684E-13, -7.225416114969383207E-15, 80.00000000000000000 ) ) ;
#6 = APPLICATION_CONTEXT ( 'configuration controlled 3d designs of mechanical parts and assemblies' ) ;
#7 = LOCAL_TIME ( 11, 4, 29.00000000000000000, #168 ) ;
#8 = CALENDAR_DATE ( 2021, 26, 11 ) ;
#9 = PERSON_AND_ORGANIZATION ( #205, #185 ) ;
#10 = VERTEX_POINT ( 'NONE', #212 ) ;
#11 = VERTEX_POINT ( 'NONE', #115 ) ;
#12 = CARTESIAN_POINT ( 'NONE',  ( 2.779219145719134403E-13, 1.999999999999988010, 79.60000000000000853 ) ) ;
#13 = APPROVAL_STATUS ( 'not_yet_approved' ) ;
#14 = DATE_TIME_ROLE ( 'creation_date' ) ;
#15 = APPROVAL_PERSON_ORGANIZATION ( #221, #25, #48 ) ;
#16 = APPROVAL ( #109, 'UNSPECIFIED' ) ;
#17 = EDGE_LOOP ( 'NONE', ( #192 ) ) ;
#18 = CALENDAR_DATE ( 2021, 26, 11 ) ;
#19 = ADVANCED_FACE ( 'NONE', ( #2, #129 ), #159, .T. ) ;
#20 = PERSON_AND_ORGANIZATION ( #205, #185 ) ;
#21 = SECURITY_CLASSIFICATION ( '', '', #189 ) ;
#22 = DIRECTION ( 'NONE',  ( -3.491481338843133355E-15, -5.540872934866631339E-16, -1.000000000000000000 ) ) ;
#23 = DIRECTION ( 'NONE',  ( -3.491481338843133355E-15, -5.540872934866631339E-16, -1.000000000000000000 ) ) ;
#24 = DIRECTION ( 'NONE',  ( -3.491481338843133355E-15, -5.540872934866631339E-16, -1.000000000000000000 ) ) ;
#25 = APPROVAL ( #13, 'UNSPECIFIED' ) ;
#26 = ORIENTED_EDGE ( 'NONE', *, *, #78, .T. ) ;
#27 = CC_DESIGN_SECURITY_CLASSIFICATION ( #21, ( #226 ) ) ;
#28 = DIRECTION ( 'NONE',  ( 3.491481338843133355E-15, 5.540872934866631339E-16, 1.000000000000000000 ) ) ;
#29 = APPROVAL_ROLE ( '' ) ;
#30 = FACE_OUTER_BOUND ( 'NONE', #176, .T. ) ;
#31 = PRODUCT_DEFINITION_SHAPE ( 'NONE', 'NONE',  #75 ) ;
#32 = DIRECTION ( 'NONE',  ( 1.000000000000000000, 0.0000000000000000000, 0.0000000000000000000 ) ) ;
#33 = ORIENTED_EDGE ( 'NONE', *, *, #201, .F. ) ;
#34 = AXIS2_PLACEMENT_3D ( 'NONE', #102, #183, #127 ) ;
#35 = EDGE_LOOP ( 'NONE', ( #167 ) ) ;
#36 = APPROVAL_DATE_TIME ( #214, #25 ) ;
#37 = FACE_OUTER_BOUND ( 'NONE', #154, .T. ) ;
#38 = DIRECTION ( 'NONE',  ( -3.491481338843133355E-15, 9.031770143711729009E-17, -1.000000000000000000 ) ) ;
#39 = EDGE_LOOP ( 'NONE', ( #162 ) ) ;
#40 = CIRCLE ( 'NONE', #177, 1.999999999999991784 ) ;
#41 = FACE_OUTER_BOUND ( 'NONE', #180, .T. ) ;
#42 = DIRECTION ( 'NONE',  ( -3.491481338843133355E-15, -5.540872934866631339E-16, -1.000000000000000000 ) ) ;
#43 = CARTESIAN_POINT ( 'NONE',  ( 1.396592535537253539E-15, 2.998999999999998778, 0.4000000000000000222 ) ) ;
#44 = CARTESIAN_POINT ( 'NONE',  ( 0.0000000000000000000, 0.0000000000000000000, 0.0000000000000000000 ) ) ;
#45 = ADVANCED_FACE ( 'NONE', ( #41 ), #161, .T. ) ;
#46 = ORIENTED_EDGE ( 'NONE', *, *, #213, .F. ) ;
#47 = APPLICATION_CONTEXT ( 'configuration controlled 3d designs of mechanical parts and assemblies' ) ;
#48 = APPROVAL_ROLE ( '' ) ;
#49 = COORDINATED_UNIVERSAL_TIME_OFFSET ( 1, 0, .AHEAD. ) ;
#50 = FACE_OUTER_BOUND ( 'NONE', #197, .T. ) ;
#51 = ADVANCED_FACE ( 'NONE', ( #50, #1 ), #143, .T. ) ;
#52 = CARTESIAN_POINT ( 'NONE',  ( 5.355048379405613839E-30, 8.498296210336148029E-31, 1.533746813946871782E-15 ) ) ;
#53 = DIRECTION ( 'NONE',  ( -1.934585445298782651E-30, 1.000000000000000000, -5.540872934866631339E-16 ) ) ;
#54 = ADVANCED_FACE ( 'NONE', ( #37 ), #126, .T. ) ;
#55 = FACE_BOUND ( 'NONE', #17, .T. ) ;
#56 = CARTESIAN_POINT ( 'NONE',  ( 5.355048379405613839E-30, 8.498296210336148029E-31, 1.533746813946871782E-15 ) ) ;
#57 = MANIFOLD_SOLID_BREP ( 'Corps-Déplacer/Copier1[2]', #160 ) ;
#58 = DIRECTION ( 'NONE',  ( 3.153425691349006731E-31, 1.000000000000000000, 9.031770143711729009E-17 ) ) ;
#59 = APPROVAL_DATE_TIME ( #234, #16 ) ;
#60 = CARTESIAN_POINT ( 'NONE',  ( 0.0000000000000000000, 0.0000000000000000000, 0.0000000000000000000 ) ) ;
#61 = LOCAL_TIME ( 11, 4, 29.00000000000000000, #120 ) ;
#62 = APPLICATION_PROTOCOL_DEFINITION ( 'international standard', 'config_control_design', 1994, #6 ) ;
#63 = CIRCLE ( 'NONE', #155, 1.599999999999994982 ) ;
#64 = PERSON_AND_ORGANIZATION_ROLE ( 'creator' ) ;
#65 = DESIGN_CONTEXT ( 'detailed design', #47, 'design' ) ;
#66 = DATE_AND_TIME ( #18, #61 ) ;
#67 = CIRCLE ( 'NONE', #135, 2.999000000000000110 ) ;
#68 = FACE_BOUND ( 'NONE', #240, .T. ) ;
#69 = DIRECTION ( 'NONE',  ( 1.934585445298782651E-30, -1.000000000000000000, 5.540872934866631339E-16 ) ) ;
#70 = CONICAL_SURFACE ( 'NONE', #141, 2.768059892324148841, 0.5235987755982969283 ) ;
#71 = CLOSED_SHELL ( 'NONE', ( #92, #19, #208, #138, #95 ) ) ;
#72 = DIRECTION ( 'NONE',  ( 3.491481338843133355E-15, -9.031770143711729009E-17, 1.000000000000000000 ) ) ;
#73 = EDGE_LOOP ( 'NONE', ( #228 ) ) ;
#74 = DIRECTION ( 'NONE',  ( 3.153425691349006731E-31, 1.000000000000000000, 9.031770143711729009E-17 ) ) ;
#75 = PRODUCT_DEFINITION ( 'UNKNOWN', '', #226, #65 ) ;
#76 =( NAMED_UNIT ( * ) PLANE_ANGLE_UNIT ( ) SI_UNIT ( $, .RADIAN. ) );
#77 =( NAMED_UNIT ( * ) SI_UNIT ( $, .STERADIAN. ) SOLID_ANGLE_UNIT ( ) );
#78 = EDGE_CURVE ( 'NONE', #10, #10, #80, .T. ) ;
#79 = DATE_AND_TIME ( #100, #137 ) ;
#80 = CIRCLE ( 'NONE', #202, 2.768059892324148841 ) ;
#81 = PERSON_AND_ORGANIZATION ( #205, #185 ) ;
#82 = APPROVAL_STATUS ( 'not_yet_approved' ) ;
#83 = EDGE_LOOP ( 'NONE', ( #139 ) ) ;
#84 = DATE_AND_TIME ( #191, #121 ) ;
#85 = AXIS2_PLACEMENT_3D ( 'NONE', #5, #72, #145 ) ;
#86 = DIRECTION ( 'NONE',  ( -1.926572135098936537E-30, 1.000000000000000000, -5.603579084203177515E-16 ) ) ;
#87 = CC_DESIGN_DATE_AND_TIME_ASSIGNMENT ( #66, #117, ( #21 ) ) ;
#88 = FACE_OUTER_BOUND ( 'NONE', #4, .T. ) ;
#89 = CARTESIAN_POINT ( 'NONE',  ( 2.793185071074506684E-13, -7.225416114969383207E-15, 80.00000000000000000 ) ) ;
#90 = CARTESIAN_POINT ( 'NONE',  ( 1.396592535537259259E-15, 2.216349173946661805E-16, 0.4000000000000016875 ) ) ;
#91 = PLANE ( 'NONE',  #85 ) ;
#92 = ADVANCED_FACE ( 'NONE', ( #165 ), #91, .T. ) ;
#93 = AXIS2_PLACEMENT_3D ( 'NONE', #178, #146, #74 ) ;
#94 = VERTEX_POINT ( 'NONE', #206 ) ;
#95 = ADVANCED_FACE ( 'NONE', ( #163 ), #199, .T. ) ;
#96 = CIRCLE ( 'NONE', #239, 1.999999999999995337 ) ;
#97 = PERSON_AND_ORGANIZATION ( #205, #185 ) ;
#98 = CC_DESIGN_APPROVAL ( #16, ( #75 ) ) ;
#99 = ORIENTED_EDGE ( 'NONE', *, *, #179, .T. ) ;
#100 = CALENDAR_DATE ( 2021, 26, 11 ) ;
#101 = APPROVAL_DATE_TIME ( #84, #128 ) ;
#102 = CARTESIAN_POINT ( 'NONE',  ( 0.0000000000000000000, 0.0000000000000000000, 0.0000000000000000000 ) ) ;
#103 = DIRECTION ( 'NONE',  ( 0.0000000000000000000, 1.000000000000000000, 0.0000000000000000000 ) ) ;
#104 = CARTESIAN_POINT ( 'NONE',  ( 2.779219145719134403E-13, -7.189289034394536528E-15, 79.60000000000000853 ) ) ;
#105 = FACE_OUTER_BOUND ( 'NONE', #118, .T. ) ;
#106 = CC_DESIGN_DATE_AND_TIME_ASSIGNMENT ( #79, #14, ( #75 ) ) ;
#107 = CARTESIAN_POINT ( 'NONE',  ( 4.281093695007341414E-14, 6.793963330806192823E-15, 12.26153967194290573 ) ) ;
#108 = CC_DESIGN_APPROVAL ( #128, ( #21 ) ) ;
#109 = APPROVAL_STATUS ( 'not_yet_approved' ) ;
#110 = VERTEX_POINT ( 'NONE', #12 ) ;
#111 = CC_DESIGN_PERSON_AND_ORGANIZATION_ASSIGNMENT ( #238, #242, ( #226 ) ) ;
#112 = CIRCLE ( 'NONE', #164, 2.998999999999998334 ) ;
#113 = MECHANICAL_CONTEXT ( 'NONE', #6, 'mechanical' ) ;
#114 = VERTEX_POINT ( 'NONE', #187 ) ;
#115 = CARTESIAN_POINT ( 'NONE',  ( 4.281093695007341414E-14, 2.998999999999998778, 12.26153967194290573 ) ) ;
#116 = APPROVAL_PERSON_ORGANIZATION ( #174, #128, #194 ) ;
#117 = DATE_TIME_ROLE ( 'classification_date' ) ;
#118 = EDGE_LOOP ( 'NONE', ( #99 ) ) ;
#119 = CC_DESIGN_PERSON_AND_ORGANIZATION_ASSIGNMENT ( #97, #237, ( #151 ) ) ;
#120 = COORDINATED_UNIVERSAL_TIME_OFFSET ( 1, 0, .AHEAD. ) ;
#121 = LOCAL_TIME ( 11, 4, 29.00000000000000000, #49 ) ;
#122 = EDGE_CURVE ( 'NONE', #235, #235, #63, .T. ) ;
#123 = PERSON_AND_ORGANIZATION_ROLE ( 'classification_officer' ) ;
#124 = DIRECTION ( 'NONE',  ( -3.491481338843133355E-15, 9.031770143711729009E-17, -1.000000000000000000 ) ) ;
#125 = AXIS2_PLACEMENT_3D ( 'NONE', #207, #42, #149 ) ;
#126 = PLANE ( 'NONE',  #148 ) ;
#127 = DIRECTION ( 'NONE',  ( -1.934585445298782651E-30, 1.000000000000000000, -5.540872934866631339E-16 ) ) ;
#128 = APPROVAL ( #82, 'UNSPECIFIED' ) ;
#129 = FACE_OUTER_BOUND ( 'NONE', #217, .T. ) ;
#130 = CIRCLE ( 'NONE', #125, 2.998999999999991672 ) ;
#131 = APPLICATION_PROTOCOL_DEFINITION ( 'international standard', 'config_control_design', 1994, #47 ) ;
#132 = DIRECTION ( 'NONE',  ( -3.491481338843133355E-15, 9.031770143711729009E-17, -1.000000000000000000 ) ) ;
#133 = MANIFOLD_SOLID_BREP ( 'Corps-Déplacer/Copier1[1]', #71 ) ;
#134 = CYLINDRICAL_SURFACE ( 'NONE', #204, 1.999999999999993561 ) ;
#135 = AXIS2_PLACEMENT_3D ( 'NONE', #169, #153, #136 ) ;
#136 = DIRECTION ( 'NONE',  ( 0.0000000000000000000, 1.000000000000000000, 0.0000000000000000000 ) ) ;
#137 = LOCAL_TIME ( 11, 4, 29.00000000000000000, #140 ) ;
#138 = ADVANCED_FACE ( 'NONE', ( #55, #147 ), #236, .T. ) ;
#139 = ORIENTED_EDGE ( 'NONE', *, *, #122, .F. ) ;
#140 = COORDINATED_UNIVERSAL_TIME_OFFSET ( 1, 0, .AHEAD. ) ;
#141 = AXIS2_PLACEMENT_3D ( 'NONE', #56, #195, #182 ) ;
#142 = DIRECTION ( 'NONE',  ( -1.934585445298782651E-30, 1.000000000000000000, -5.540872934866631339E-16 ) ) ;
#143 = CYLINDRICAL_SURFACE ( 'NONE', #34, 2.998999999999994781 ) ;
#144 = APPROVAL_PERSON_ORGANIZATION ( #9, #16, #29 ) ;
#145 = DIRECTION ( 'NONE',  ( -3.153425691349006731E-31, -1.000000000000000000, -9.031770143711729009E-17 ) ) ;
#146 = DIRECTION ( 'NONE',  ( -3.491481338843133355E-15, 9.031770143711729009E-17, -1.000000000000000000 ) ) ;
#147 = FACE_OUTER_BOUND ( 'NONE', #173, .T. ) ;
#148 = AXIS2_PLACEMENT_3D ( 'NONE', #107, #28, #69 ) ;
#149 = DIRECTION ( 'NONE',  ( -2.055010277438870217E-30, 1.000000000000000000, -5.784339699822647197E-16 ) ) ;
#150 = CARTESIAN_POINT ( 'NONE',  ( 2.779219145719134403E-13, -7.189289034394536528E-15, 79.60000000000000853 ) ) ;
#151 = PRODUCT ( '321503', '321503', '', ( #113 ) ) ;
#152 = PRODUCT_RELATED_PRODUCT_CATEGORY ( 'detail', '', ( #151 ) ) ;
#153 = DIRECTION ( 'NONE',  ( -3.491481338843133355E-15, 9.031770143711729009E-17, -1.000000000000000000 ) ) ;
#154 = EDGE_LOOP ( 'NONE', ( #175 ) ) ;
#155 = AXIS2_PLACEMENT_3D ( 'NONE', #89, #38, #230 ) ;
#156 = ORIENTED_EDGE ( 'NONE', *, *, #232, .T. ) ;
#157 = PERSON_AND_ORGANIZATION_ROLE ( 'creator' ) ;
#158 = ORIENTED_EDGE ( 'NONE', *, *, #243, .T. ) ;
#159 = CONICAL_SURFACE ( 'NONE', #220, 1.999999999999995337, 0.7853981633974516097 ) ;
#160 = CLOSED_SHELL ( 'NONE', ( #54, #51, #166, #45 ) ) ;
#161 = PLANE ( 'NONE',  #222 ) ;
#162 = ORIENTED_EDGE ( 'NONE', *, *, #213, .T. ) ;
#163 = FACE_OUTER_BOUND ( 'NONE', #39, .T. ) ;
#164 = AXIS2_PLACEMENT_3D ( 'NONE', #90, #22, #86 ) ;
#165 = FACE_OUTER_BOUND ( 'NONE', #83, .T. ) ;
#166 = ADVANCED_FACE ( 'NONE', ( #105, #68 ), #70, .T. ) ;
#167 = ORIENTED_EDGE ( 'NONE', *, *, #122, .T. ) ;
#168 = COORDINATED_UNIVERSAL_TIME_OFFSET ( 1, 0, .AHEAD. ) ;
#169 = CARTESIAN_POINT ( 'NONE',  ( 4.281093695007341414E-14, -1.107434079249908439E-15, 12.26153967194290573 ) ) ;
#170 = VERTEX_POINT ( 'NONE', #43 ) ;
#171 = AXIS2_PLACEMENT_3D ( 'NONE', #3, #229, #231 ) ;
#172 = LOCAL_TIME ( 11, 4, 29.00000000000000000, #241 ) ;
#173 = EDGE_LOOP ( 'NONE', ( #46 ) ) ;
#174 = PERSON_AND_ORGANIZATION ( #205, #185 ) ;
#175 = ORIENTED_EDGE ( 'NONE', *, *, #243, .F. ) ;
#176 = EDGE_LOOP ( 'NONE', ( #33 ) ) ;
#177 = AXIS2_PLACEMENT_3D ( 'NONE', #225, #124, #103 ) ;
#178 = CARTESIAN_POINT ( 'NONE',  ( 4.281093695007341414E-14, 2.998999999999998778, 12.26153967194290573 ) ) ;
#179 = EDGE_CURVE ( 'NONE', #170, #170, #112, .T. ) ;
#180 = EDGE_LOOP ( 'NONE', ( #26 ) ) ;
#181 = CARTESIAN_POINT ( 'NONE',  ( -2.677524189702806919E-30, 2.768059892324148841, -7.668734069734358910E-16 ) ) ;
#182 = DIRECTION ( 'NONE',  ( 1.934585445298782651E-30, -1.000000000000000000, 5.540872934866631339E-16 ) ) ;
#183 = DIRECTION ( 'NONE',  ( -3.491481338843133355E-15, -5.540872934866631339E-16, -1.000000000000000000 ) ) ;
#184 = DIRECTION ( 'NONE',  ( -3.491481338843133355E-15, 9.031770143711729009E-17, -1.000000000000000000 ) ) ;
#185 = ORGANIZATION ( 'UNSPECIFIED', 'UNSPECIFIED', '' ) ;
#186 = DIRECTION ( 'NONE',  ( 0.0000000000000000000, 1.000000000000000000, 0.0000000000000000000 ) ) ;
#187 = CARTESIAN_POINT ( 'NONE',  ( 4.281093695007341414E-14, 2.998999999999998778, 12.26153967194290573 ) ) ;
#188 = DIRECTION ( 'NONE',  ( 0.0000000000000000000, 0.0000000000000000000, 1.000000000000000000 ) ) ;
#189 = SECURITY_CLASSIFICATION_LEVEL ( 'unclassified' ) ;
#190 = ORIENTED_EDGE ( 'NONE', *, *, #232, .F. ) ;
#191 = CALENDAR_DATE ( 2021, 26, 11 ) ;
#192 = ORIENTED_EDGE ( 'NONE', *, *, #201, .T. ) ;
#193 = CC_DESIGN_PERSON_AND_ORGANIZATION_ASSIGNMENT ( #20, #157, ( #75 ) ) ;
#194 = APPROVAL_ROLE ( '' ) ;
#195 = DIRECTION ( 'NONE',  ( 3.491481338843133355E-15, 5.540872934866631339E-16, 1.000000000000000000 ) ) ;
#196 = UNCERTAINTY_MEASURE_WITH_UNIT (LENGTH_MEASURE( 1.000000000000000082E-05 ), #233, 'distance_accuracy_value', 'NONE');
#197 = EDGE_LOOP ( 'NONE', ( #158 ) ) ;
#198 = CC_DESIGN_PERSON_AND_ORGANIZATION_ASSIGNMENT ( #81, #64, ( #226 ) ) ;
#199 = PLANE ( 'NONE',  #93 ) ;
#200 = DIRECTION ( 'NONE',  ( -3.491481338843133355E-15, 9.031770143711729009E-17, -1.000000000000000000 ) ) ;
#201 = EDGE_CURVE ( 'NONE', #94, #94, #40, .T. ) ;
#202 = AXIS2_PLACEMENT_3D ( 'NONE', #52, #23, #142 ) ;
#203 = DIRECTION ( 'NONE',  ( 0.0000000000000000000, 1.000000000000000000, 0.0000000000000000000 ) ) ;
#204 = AXIS2_PLACEMENT_3D ( 'NONE', #60, #184, #58 ) ;
#205 = PERSON ( 'UNSPECIFIED', 'UNSPECIFIED', 'UNSPECIFIED', ('UNSPECIFIED'), ('UNSPECIFIED'), ('UNSPECIFIED') ) ;
#206 = CARTESIAN_POINT ( 'NONE',  ( 4.885231259955590439E-14, 1.999999999999990452, 13.99185842870425134 ) ) ;
#207 = CARTESIAN_POINT ( 'NONE',  ( 4.281093695007342045E-14, 6.793963330806193611E-15, 12.26153967194290750 ) ) ;
#208 = ADVANCED_FACE ( 'NONE', ( #88, #30 ), #134, .T. ) ;
#209 = CARTESIAN_POINT ( 'NONE',  ( 2.793185071074506684E-13, 1.599999999999987876, 80.00000000000000000 ) ) ;
#210 =( GEOMETRIC_REPRESENTATION_CONTEXT ( 3 ) GLOBAL_UNCERTAINTY_ASSIGNED_CONTEXT ( ( #196 ) ) GLOBAL_UNIT_ASSIGNED_CONTEXT ( ( #233, #76, #77 ) ) REPRESENTATION_CONTEXT ( 'NONE', 'WORKASPACE' ) );
#211 = CC_DESIGN_PERSON_AND_ORGANIZATION_ASSIGNMENT ( #218, #123, ( #21 ) ) ;
#212 = CARTESIAN_POINT ( 'NONE',  ( 0.0000000000000000000, 2.768059892324148841, 0.0000000000000000000 ) ) ;
#213 = EDGE_CURVE ( 'NONE', #11, #11, #67, .T. ) ;
#214 = DATE_AND_TIME ( #216, #172 ) ;
#215 = AXIS2_PLACEMENT_3D ( 'NONE', #44, #188, #32 ) ;
#216 = CALENDAR_DATE ( 2021, 26, 11 ) ;
#217 = EDGE_LOOP ( 'NONE', ( #190 ) ) ;
#218 = PERSON_AND_ORGANIZATION ( #205, #185 ) ;
#219 = SHAPE_DEFINITION_REPRESENTATION ( #31, #224 ) ;
#220 = AXIS2_PLACEMENT_3D ( 'NONE', #104, #200, #203 ) ;
#221 = PERSON_AND_ORGANIZATION ( #205, #185 ) ;
#222 = AXIS2_PLACEMENT_3D ( 'NONE', #181, #24, #53 ) ;
#223 = ORIENTED_EDGE ( 'NONE', *, *, #78, .F. ) ;
#224 = ADVANCED_BREP_SHAPE_REPRESENTATION ( '321503', ( #133, #57, #215 ), #210 ) ;
#225 = CARTESIAN_POINT ( 'NONE',  ( 4.885231259955590439E-14, -1.263712492114123682E-15, 13.99185842870425134 ) ) ;
#226 = PRODUCT_DEFINITION_FORMATION_WITH_SPECIFIED_SOURCE ( 'ANY', '', #151, .NOT_KNOWN. ) ;
#227 = CC_DESIGN_APPROVAL ( #25, ( #226 ) ) ;
#228 = ORIENTED_EDGE ( 'NONE', *, *, #179, .F. ) ;
#229 = DIRECTION ( 'NONE',  ( -3.491481338843133355E-15, 9.031770143711729009E-17, -1.000000000000000000 ) ) ;
#230 = DIRECTION ( 'NONE',  ( 0.0000000000000000000, 1.000000000000000000, 0.0000000000000000000 ) ) ;
#231 = DIRECTION ( 'NONE',  ( 0.0000000000000000000, 1.000000000000000000, 0.0000000000000000000 ) ) ;
#232 = EDGE_CURVE ( 'NONE', #110, #110, #96, .T. ) ;
#233 =( LENGTH_UNIT ( ) NAMED_UNIT ( * ) SI_UNIT ( .MILLI., .METRE. ) );
#234 = DATE_AND_TIME ( #8, #7 ) ;
#235 = VERTEX_POINT ( 'NONE', #209 ) ;
#236 = CONICAL_SURFACE ( 'NONE', #171, 2.999000000000000110, 0.5235987755982929315 ) ;
#237 = PERSON_AND_ORGANIZATION_ROLE ( 'design_owner' ) ;
#238 = PERSON_AND_ORGANIZATION ( #205, #185 ) ;
#239 = AXIS2_PLACEMENT_3D ( 'NONE', #150, #132, #186 ) ;
#240 = EDGE_LOOP ( 'NONE', ( #223 ) ) ;
#241 = COORDINATED_UNIVERSAL_TIME_OFFSET ( 1, 0, .AHEAD. ) ;
#242 = PERSON_AND_ORGANIZATION_ROLE ( 'design_supplier' ) ;
#243 = EDGE_CURVE ( 'NONE', #114, #114, #130, .T. ) ;
ENDSEC;
END-ISO-10303-21;
