ISO-10303-21;
HEADER;
FILE_DESCRIPTION (( 'STEP AP203' ),
    '1' );
FILE_NAME ('321502.step',
    '2021-11-26T10:04:29',
    ( '' ),
    ( '' ),
    'SwSTEP 2.0',
    'SolidWorks 2019',
    '' );
FILE_SCHEMA (( 'CONFIG_CONTROL_DESIGN' ));
ENDSEC;

DATA;
#1 = DIRECTION ( 'NONE',  ( 1.000000000000000000, 0.0000000000000000000, 0.0000000000000000000 ) ) ;
#2 = LOCAL_TIME ( 11, 4, 29.00000000000000000, #154 ) ;
#3 = EDGE_LOOP ( 'NONE', ( #102 ) ) ;
#4 = PERSON_AND_ORGANIZATION ( #101, #144 ) ;
#5 = ADVANCED_FACE ( 'NONE', ( #88, #196 ), #198, .T. ) ;
#6 = FACE_OUTER_BOUND ( 'NONE', #131, .T. ) ;
#7 = CALENDAR_DATE ( 2021, 26, 11 ) ;
#8 = CARTESIAN_POINT ( 'NONE',  ( 4.284117406543618288E-14, -1.108216253488468130E-15, 12.27019992598074971 ) ) ;
#9 = CIRCLE ( 'NONE', #203, 1.999999999999991784 ) ;
#10 = DIRECTION ( 'NONE',  ( 3.153425691349006731E-31, 1.000000000000000000, 9.031770143711729009E-17 ) ) ;
#11 = FACE_OUTER_BOUND ( 'NONE', #72, .T. ) ;
#12 = CALENDAR_DATE ( 2021, 26, 11 ) ;
#13 = CARTESIAN_POINT ( 'NONE',  ( 5.339935001872634397E-30, 8.465686708430585305E-31, 1.529418170581420508E-15 ) ) ;
#14 = EDGE_LOOP ( 'NONE', ( #243 ) ) ;
#15 = CARTESIAN_POINT ( 'NONE',  ( 4.284117406543618288E-14, -1.108216253488468130E-15, 12.27019992598074971 ) ) ;
#16 = CARTESIAN_POINT ( 'NONE',  ( 1.396592535537259259E-15, 2.214093403954347742E-16, 0.4000000000000016875 ) ) ;
#17 = CC_DESIGN_DATE_AND_TIME_ASSIGNMENT ( #85, #46, ( #205 ) ) ;
#18 = DATE_TIME_ROLE ( 'creation_date' ) ;
#19 = ORIENTED_EDGE ( 'NONE', *, *, #138, .T. ) ;
#20 = APPLICATION_CONTEXT ( 'configuration controlled 3d designs of mechanical parts and assemblies' ) ;
#21 = AXIS2_PLACEMENT_3D ( 'NONE', #16, #56, #53 ) ;
#22 = CARTESIAN_POINT ( 'NONE',  ( 6.842277657836020854E-46, 2.763059892324148947, 0.0000000000000000000 ) ) ;
#23 = CARTESIAN_POINT ( 'NONE',  ( 4.885231259955590439E-14, 1.999999999999990452, 13.99185842870425134 ) ) ;
#24 = DIRECTION ( 'NONE',  ( 0.0000000000000000000, 1.000000000000000000, 0.0000000000000000000 ) ) ;
#25 = PRODUCT_RELATED_PRODUCT_CATEGORY ( 'detail', '', ( #220 ) ) ;
#26 = MANIFOLD_SOLID_BREP ( 'Corps-Déplacer/Copier1[1]', #96 ) ;
#27 = CONICAL_SURFACE ( 'NONE', #64, 1.999999999999995337, 0.7853981633974516097 ) ;
#28 = MANIFOLD_SOLID_BREP ( 'Corps-Déplacer/Copier1[2]', #213 ) ;
#29 = CARTESIAN_POINT ( 'NONE',  ( 0.0000000000000000000, 0.0000000000000000000, 0.0000000000000000000 ) ) ;
#30 = VERTEX_POINT ( 'NONE', #111 ) ;
#31 = DIRECTION ( 'NONE',  ( -3.491481338843133355E-15, 9.031770143711729009E-17, -1.000000000000000000 ) ) ;
#32 = CIRCLE ( 'NONE', #21, 2.993999999999998440 ) ;
#33 = DIRECTION ( 'NONE',  ( -3.491481338843133355E-15, -5.535233509885845689E-16, -1.000000000000000000 ) ) ;
#34 = DATE_AND_TIME ( #12, #36 ) ;
#35 = PERSON_AND_ORGANIZATION ( #101, #144 ) ;
#36 = LOCAL_TIME ( 11, 4, 29.00000000000000000, #61 ) ;
#37 = CARTESIAN_POINT ( 'NONE',  ( 4.284117406543618288E-14, 2.993999999999998884, 12.27019992598074971 ) ) ;
#38 = CARTESIAN_POINT ( 'NONE',  ( -2.669967500936317199E-30, 2.763059892324148947, -7.647090852907102542E-16 ) ) ;
#39 = CARTESIAN_POINT ( 'NONE',  ( 2.779219145719134403E-13, -7.189289034394536528E-15, 79.60000000000000853 ) ) ;
#40 = CIRCLE ( 'NONE', #148, 1.599999999999994982 ) ;
#41 = DIRECTION ( 'NONE',  ( -3.491481338843133355E-15, 9.031770143711729009E-17, -1.000000000000000000 ) ) ;
#42 = PERSON_AND_ORGANIZATION_ROLE ( 'creator' ) ;
#43 = EDGE_LOOP ( 'NONE', ( #216 ) ) ;
#44 = CARTESIAN_POINT ( 'NONE',  ( 4.284117406543618919E-14, 6.791842180328748256E-15, 12.27019992598075149 ) ) ;
#45 = EDGE_CURVE ( 'NONE', #133, #133, #119, .T. ) ;
#46 = DATE_TIME_ROLE ( 'classification_date' ) ;
#47 = ORIENTED_EDGE ( 'NONE', *, *, #232, .T. ) ;
#48 = AXIS2_PLACEMENT_3D ( 'NONE', #60, #41, #82 ) ;
#49 = SHAPE_DEFINITION_REPRESENTATION ( #117, #69 ) ;
#50 = CARTESIAN_POINT ( 'NONE',  ( 0.0000000000000000000, 0.0000000000000000000, 0.0000000000000000000 ) ) ;
#51 =( NAMED_UNIT ( * ) SI_UNIT ( $, .STERADIAN. ) SOLID_ANGLE_UNIT ( ) );
#52 =( GEOMETRIC_REPRESENTATION_CONTEXT ( 3 ) GLOBAL_UNCERTAINTY_ASSIGNED_CONTEXT ( ( #222 ) ) GLOBAL_UNIT_ASSIGNED_CONTEXT ( ( #231, #124, #51 ) ) REPRESENTATION_CONTEXT ( 'NONE', 'WORKASPACE' ) );
#53 = DIRECTION ( 'NONE',  ( -1.929789523434105170E-30, 1.000000000000000000, -5.612937098705854141E-16 ) ) ;
#54 = EDGE_CURVE ( 'NONE', #30, #30, #40, .T. ) ;
#55 = FACE_BOUND ( 'NONE', #65, .T. ) ;
#56 = DIRECTION ( 'NONE',  ( -3.491481338843133355E-15, -5.535233509885845689E-16, -1.000000000000000000 ) ) ;
#57 = COORDINATED_UNIVERSAL_TIME_OFFSET ( 1, 0, .AHEAD. ) ;
#58 = ORIENTED_EDGE ( 'NONE', *, *, #138, .F. ) ;
#59 = COORDINATED_UNIVERSAL_TIME_OFFSET ( 1, 0, .AHEAD. ) ;
#60 = CARTESIAN_POINT ( 'NONE',  ( 4.284117406543617656E-14, 2.993999999999998884, 12.27019992598074793 ) ) ;
#61 = COORDINATED_UNIVERSAL_TIME_OFFSET ( 1, 0, .AHEAD. ) ;
#62 = CC_DESIGN_PERSON_AND_ORGANIZATION_ASSIGNMENT ( #105, #176, ( #160 ) ) ;
#63 = APPLICATION_PROTOCOL_DEFINITION ( 'international standard', 'config_control_design', 1994, #240 ) ;
#64 = AXIS2_PLACEMENT_3D ( 'NONE', #39, #233, #143 ) ;
#65 = EDGE_LOOP ( 'NONE', ( #172 ) ) ;
#66 = APPROVAL_ROLE ( '' ) ;
#67 = DIRECTION ( 'NONE',  ( 0.0000000000000000000, 1.000000000000000000, 0.0000000000000000000 ) ) ;
#68 = CONICAL_SURFACE ( 'NONE', #208, 2.994000000000000217, 0.5235987755982928205 ) ;
#69 = ADVANCED_BREP_SHAPE_REPRESENTATION ( '321502', ( #26, #28, #185 ), #52 ) ;
#70 = LOCAL_TIME ( 11, 4, 29.00000000000000000, #59 ) ;
#71 = APPROVAL_DATE_TIME ( #113, #116 ) ;
#72 = EDGE_LOOP ( 'NONE', ( #94 ) ) ;
#73 = FACE_OUTER_BOUND ( 'NONE', #177, .T. ) ;
#74 = CARTESIAN_POINT ( 'NONE',  ( 5.339935001872634397E-30, 8.465686708430585305E-31, 1.529418170581420508E-15 ) ) ;
#75 = EDGE_LOOP ( 'NONE', ( #151 ) ) ;
#76 = FACE_OUTER_BOUND ( 'NONE', #238, .T. ) ;
#77 = APPROVAL ( #227, 'UNSPECIFIED' ) ;
#78 = PERSON_AND_ORGANIZATION ( #101, #144 ) ;
#79 = DIRECTION ( 'NONE',  ( -3.491481338843133355E-15, -5.535233509885845689E-16, -1.000000000000000000 ) ) ;
#80 = FACE_OUTER_BOUND ( 'NONE', #3, .T. ) ;
#81 = PERSON_AND_ORGANIZATION_ROLE ( 'design_owner' ) ;
#82 = DIRECTION ( 'NONE',  ( 3.153425691349006731E-31, 1.000000000000000000, 9.031770143711729009E-17 ) ) ;
#83 = APPROVAL_PERSON_ORGANIZATION ( #162, #116, #230 ) ;
#84 = SECURITY_CLASSIFICATION_LEVEL ( 'unclassified' ) ;
#85 = DATE_AND_TIME ( #7, #2 ) ;
#86 = ADVANCED_FACE ( 'NONE', ( #179, #6 ), #68, .T. ) ;
#87 = AXIS2_PLACEMENT_3D ( 'NONE', #163, #110, #147 ) ;
#88 = FACE_OUTER_BOUND ( 'NONE', #164, .T. ) ;
#89 = DIRECTION ( 'NONE',  ( 0.0000000000000000000, 1.000000000000000000, 0.0000000000000000000 ) ) ;
#90 = PERSON_AND_ORGANIZATION ( #101, #144 ) ;
#91 = CC_DESIGN_PERSON_AND_ORGANIZATION_ASSIGNMENT ( #35, #130, ( #150 ) ) ;
#92 = AXIS2_PLACEMENT_3D ( 'NONE', #50, #214, #10 ) ;
#93 = DIRECTION ( 'NONE',  ( -1.932616450590560717E-30, 1.000000000000000000, -5.535233509885845689E-16 ) ) ;
#94 = ORIENTED_EDGE ( 'NONE', *, *, #195, .F. ) ;
#95 = CC_DESIGN_PERSON_AND_ORGANIZATION_ASSIGNMENT ( #90, #81, ( #220 ) ) ;
#96 = CLOSED_SHELL ( 'NONE', ( #118, #192, #5, #86, #168 ) ) ;
#97 = APPROVAL_ROLE ( '' ) ;
#98 = CC_DESIGN_PERSON_AND_ORGANIZATION_ASSIGNMENT ( #4, #42, ( #160 ) ) ;
#99 = EDGE_LOOP ( 'NONE', ( #58 ) ) ;
#100 = DIRECTION ( 'NONE',  ( 0.0000000000000000000, 0.0000000000000000000, 1.000000000000000000 ) ) ;
#101 = PERSON ( 'UNSPECIFIED', 'UNSPECIFIED', 'UNSPECIFIED', ('UNSPECIFIED'), ('UNSPECIFIED'), ('UNSPECIFIED') ) ;
#102 = ORIENTED_EDGE ( 'NONE', *, *, #195, .T. ) ;
#103 = CIRCLE ( 'NONE', #141, 2.994000000000000217 ) ;
#104 = ADVANCED_FACE ( 'NONE', ( #80, #145 ), #128, .T. ) ;
#105 = PERSON_AND_ORGANIZATION ( #101, #144 ) ;
#106 = PLANE ( 'NONE',  #235 ) ;
#107 = APPROVAL ( #218, 'UNSPECIFIED' ) ;
#108 = DIRECTION ( 'NONE',  ( -3.491481338843133355E-15, -5.535233509885845689E-16, -1.000000000000000000 ) ) ;
#109 = DIRECTION ( 'NONE',  ( -3.491481338843133355E-15, 9.031770143711729009E-17, -1.000000000000000000 ) ) ;
#110 = DIRECTION ( 'NONE',  ( 3.491481338843133355E-15, -9.031770143711729009E-17, 1.000000000000000000 ) ) ;
#111 = CARTESIAN_POINT ( 'NONE',  ( 2.793185071074506684E-13, 1.599999999999987876, 80.00000000000000000 ) ) ;
#112 = CC_DESIGN_APPROVAL ( #107, ( #160 ) ) ;
#113 = DATE_AND_TIME ( #219, #190 ) ;
#114 = APPROVAL_DATE_TIME ( #189, #107 ) ;
#115 = VERTEX_POINT ( 'NONE', #191 ) ;
#116 = APPROVAL ( #158, 'UNSPECIFIED' ) ;
#117 = PRODUCT_DEFINITION_SHAPE ( 'NONE', 'NONE',  #150 ) ;
#118 = ADVANCED_FACE ( 'NONE', ( #76 ), #187, .T. ) ;
#119 = CIRCLE ( 'NONE', #152, 1.999999999999995337 ) ;
#120 = MECHANICAL_CONTEXT ( 'NONE', #240, 'mechanical' ) ;
#121 = EDGE_LOOP ( 'NONE', ( #174 ) ) ;
#122 = CC_DESIGN_DATE_AND_TIME_ASSIGNMENT ( #34, #18, ( #150 ) ) ;
#123 = APPROVAL_DATE_TIME ( #226, #77 ) ;
#124 =( NAMED_UNIT ( * ) PLANE_ANGLE_UNIT ( ) SI_UNIT ( $, .RADIAN. ) );
#125 = CIRCLE ( 'NONE', #215, 2.763059892324148947 ) ;
#126 = FACE_BOUND ( 'NONE', #121, .T. ) ;
#127 = AXIS2_PLACEMENT_3D ( 'NONE', #38, #108, #188 ) ;
#128 = CYLINDRICAL_SURFACE ( 'NONE', #182, 2.993999999999994888 ) ;
#129 = CC_DESIGN_PERSON_AND_ORGANIZATION_ASSIGNMENT ( #180, #209, ( #205 ) ) ;
#130 = PERSON_AND_ORGANIZATION_ROLE ( 'creator' ) ;
#131 = EDGE_LOOP ( 'NONE', ( #210 ) ) ;
#132 = CIRCLE ( 'NONE', #167, 2.993999999999991779 ) ;
#133 = VERTEX_POINT ( 'NONE', #183 ) ;
#134 = CALENDAR_DATE ( 2021, 26, 11 ) ;
#135 = DIRECTION ( 'NONE',  ( -2.058442158329716478E-30, 1.000000000000000000, -5.793999585760894163E-16 ) ) ;
#136 = ORIENTED_EDGE ( 'NONE', *, *, #54, .F. ) ;
#137 = CC_DESIGN_APPROVAL ( #116, ( #150 ) ) ;
#138 = EDGE_CURVE ( 'NONE', #236, #236, #9, .T. ) ;
#139 = ADVANCED_FACE ( 'NONE', ( #73 ), #241, .T. ) ;
#140 = COORDINATED_UNIVERSAL_TIME_OFFSET ( 1, 0, .AHEAD. ) ;
#141 = AXIS2_PLACEMENT_3D ( 'NONE', #15, #155, #24 ) ;
#142 = APPLICATION_PROTOCOL_DEFINITION ( 'international standard', 'config_control_design', 1994, #20 ) ;
#143 = DIRECTION ( 'NONE',  ( 0.0000000000000000000, 1.000000000000000000, 0.0000000000000000000 ) ) ;
#144 = ORGANIZATION ( 'UNSPECIFIED', 'UNSPECIFIED', '' ) ;
#145 = FACE_OUTER_BOUND ( 'NONE', #14, .T. ) ;
#146 = CARTESIAN_POINT ( 'NONE',  ( 2.793185071074506684E-13, -7.225416114969383207E-15, 80.00000000000000000 ) ) ;
#147 = DIRECTION ( 'NONE',  ( -3.153425691349006731E-31, -1.000000000000000000, -9.031770143711729009E-17 ) ) ;
#148 = AXIS2_PLACEMENT_3D ( 'NONE', #146, #109, #207 ) ;
#149 = DIRECTION ( 'NONE',  ( 1.932616450590560367E-30, -1.000000000000000000, 5.535233509885845689E-16 ) ) ;
#150 = PRODUCT_DEFINITION ( 'UNKNOWN', '', #160, #157 ) ;
#151 = ORIENTED_EDGE ( 'NONE', *, *, #45, .F. ) ;
#152 = AXIS2_PLACEMENT_3D ( 'NONE', #228, #234, #89 ) ;
#153 = EDGE_CURVE ( 'NONE', #206, #206, #103, .T. ) ;
#154 = COORDINATED_UNIVERSAL_TIME_OFFSET ( 1, 0, .AHEAD. ) ;
#155 = DIRECTION ( 'NONE',  ( -3.491481338843133355E-15, 9.031770143711729009E-17, -1.000000000000000000 ) ) ;
#156 = LOCAL_TIME ( 11, 4, 29.00000000000000000, #140 ) ;
#157 = DESIGN_CONTEXT ( 'detailed design', #20, 'design' ) ;
#158 = APPROVAL_STATUS ( 'not_yet_approved' ) ;
#159 = ADVANCED_FACE ( 'NONE', ( #11 ), #106, .T. ) ;
#160 = PRODUCT_DEFINITION_FORMATION_WITH_SPECIFIED_SOURCE ( 'ANY', '', #220, .NOT_KNOWN. ) ;
#161 = CARTESIAN_POINT ( 'NONE',  ( 4.885231259955590439E-14, -1.263712492114123682E-15, 13.99185842870425134 ) ) ;
#162 = PERSON_AND_ORGANIZATION ( #101, #144 ) ;
#163 = CARTESIAN_POINT ( 'NONE',  ( 2.793185071074506684E-13, -7.225416114969383207E-15, 80.00000000000000000 ) ) ;
#164 = EDGE_LOOP ( 'NONE', ( #171 ) ) ;
#165 = DIRECTION ( 'NONE',  ( -1.932616450590560717E-30, 1.000000000000000000, -5.535233509885845689E-16 ) ) ;
#166 = FACE_OUTER_BOUND ( 'NONE', #75, .T. ) ;
#167 = AXIS2_PLACEMENT_3D ( 'NONE', #44, #79, #135 ) ;
#168 = ADVANCED_FACE ( 'NONE', ( #170 ), #242, .T. ) ;
#169 = CC_DESIGN_APPROVAL ( #77, ( #205 ) ) ;
#170 = FACE_OUTER_BOUND ( 'NONE', #43, .T. ) ;
#171 = ORIENTED_EDGE ( 'NONE', *, *, #45, .T. ) ;
#172 = ORIENTED_EDGE ( 'NONE', *, *, #232, .F. ) ;
#173 = EDGE_LOOP ( 'NONE', ( #202 ) ) ;
#174 = ORIENTED_EDGE ( 'NONE', *, *, #54, .T. ) ;
#175 = APPROVAL_PERSON_ORGANIZATION ( #193, #77, #66 ) ;
#176 = PERSON_AND_ORGANIZATION_ROLE ( 'design_supplier' ) ;
#177 = EDGE_LOOP ( 'NONE', ( #47 ) ) ;
#178 = APPROVAL_PERSON_ORGANIZATION ( #78, #107, #97 ) ;
#179 = FACE_BOUND ( 'NONE', #186, .T. ) ;
#180 = PERSON_AND_ORGANIZATION ( #101, #144 ) ;
#181 = DIRECTION ( 'NONE',  ( 3.491481338843133355E-15, 5.535233509885845689E-16, 1.000000000000000000 ) ) ;
#182 = AXIS2_PLACEMENT_3D ( 'NONE', #29, #33, #165 ) ;
#183 = CARTESIAN_POINT ( 'NONE',  ( 2.779219145719134403E-13, 1.999999999999988010, 79.60000000000000853 ) ) ;
#184 = CARTESIAN_POINT ( 'NONE',  ( 0.0000000000000000000, 0.0000000000000000000, 0.0000000000000000000 ) ) ;
#185 = AXIS2_PLACEMENT_3D ( 'NONE', #184, #100, #1 ) ;
#186 = EDGE_LOOP ( 'NONE', ( #19 ) ) ;
#187 = PLANE ( 'NONE',  #87 ) ;
#188 = DIRECTION ( 'NONE',  ( -1.932616450590560717E-30, 1.000000000000000000, -5.535233509885845689E-16 ) ) ;
#189 = DATE_AND_TIME ( #134, #70 ) ;
#190 = LOCAL_TIME ( 11, 4, 29.00000000000000000, #57 ) ;
#191 = CARTESIAN_POINT ( 'NONE',  ( 4.284117406543618288E-14, 2.993999999999998884, 12.27019992598074971 ) ) ;
#192 = ADVANCED_FACE ( 'NONE', ( #126, #166 ), #27, .T. ) ;
#193 = PERSON_AND_ORGANIZATION ( #101, #144 ) ;
#194 = FACE_OUTER_BOUND ( 'NONE', #173, .T. ) ;
#195 = EDGE_CURVE ( 'NONE', #115, #115, #132, .T. ) ;
#196 = FACE_OUTER_BOUND ( 'NONE', #99, .T. ) ;
#197 = AXIS2_PLACEMENT_3D ( 'NONE', #74, #201, #149 ) ;
#198 = CYLINDRICAL_SURFACE ( 'NONE', #92, 1.999999999999993561 ) ;
#199 = CARTESIAN_POINT ( 'NONE',  ( 4.284117406543617656E-14, 6.791842180328745890E-15, 12.27019992598074793 ) ) ;
#200 = ADVANCED_FACE ( 'NONE', ( #194, #55 ), #225, .T. ) ;
#201 = DIRECTION ( 'NONE',  ( 3.491481338843133355E-15, 5.535233509885845689E-16, 1.000000000000000000 ) ) ;
#202 = ORIENTED_EDGE ( 'NONE', *, *, #223, .T. ) ;
#203 = AXIS2_PLACEMENT_3D ( 'NONE', #161, #31, #239 ) ;
#204 = CC_DESIGN_SECURITY_CLASSIFICATION ( #205, ( #160 ) ) ;
#205 = SECURITY_CLASSIFICATION ( '', '', #84 ) ;
#206 = VERTEX_POINT ( 'NONE', #37 ) ;
#207 = DIRECTION ( 'NONE',  ( 0.0000000000000000000, 1.000000000000000000, 0.0000000000000000000 ) ) ;
#208 = AXIS2_PLACEMENT_3D ( 'NONE', #8, #211, #67 ) ;
#209 = PERSON_AND_ORGANIZATION_ROLE ( 'classification_officer' ) ;
#210 = ORIENTED_EDGE ( 'NONE', *, *, #153, .F. ) ;
#211 = DIRECTION ( 'NONE',  ( -3.491481338843133355E-15, 9.031770143711729009E-17, -1.000000000000000000 ) ) ;
#212 = CALENDAR_DATE ( 2021, 26, 11 ) ;
#213 = CLOSED_SHELL ( 'NONE', ( #159, #104, #200, #139 ) ) ;
#214 = DIRECTION ( 'NONE',  ( -3.491481338843133355E-15, 9.031770143711729009E-17, -1.000000000000000000 ) ) ;
#215 = AXIS2_PLACEMENT_3D ( 'NONE', #13, #237, #93 ) ;
#216 = ORIENTED_EDGE ( 'NONE', *, *, #153, .T. ) ;
#217 = VERTEX_POINT ( 'NONE', #221 ) ;
#218 = APPROVAL_STATUS ( 'not_yet_approved' ) ;
#219 = CALENDAR_DATE ( 2021, 26, 11 ) ;
#220 = PRODUCT ( '321502', '321502', '', ( #120 ) ) ;
#221 = CARTESIAN_POINT ( 'NONE',  ( 1.396592535537253539E-15, 2.993999999999998884, 0.4000000000000000222 ) ) ;
#222 = UNCERTAINTY_MEASURE_WITH_UNIT (LENGTH_MEASURE( 1.000000000000000082E-05 ), #231, 'distance_accuracy_value', 'NONE');
#223 = EDGE_CURVE ( 'NONE', #217, #217, #32, .T. ) ;
#224 = VERTEX_POINT ( 'NONE', #22 ) ;
#225 = CONICAL_SURFACE ( 'NONE', #197, 2.763059892324148947, 0.5235987755982969283 ) ;
#226 = DATE_AND_TIME ( #212, #156 ) ;
#227 = APPROVAL_STATUS ( 'not_yet_approved' ) ;
#228 = CARTESIAN_POINT ( 'NONE',  ( 2.779219145719134403E-13, -7.189289034394536528E-15, 79.60000000000000853 ) ) ;
#229 = DIRECTION ( 'NONE',  ( 1.932616450590560717E-30, -1.000000000000000000, 5.535233509885845689E-16 ) ) ;
#230 = APPROVAL_ROLE ( '' ) ;
#231 =( LENGTH_UNIT ( ) NAMED_UNIT ( * ) SI_UNIT ( .MILLI., .METRE. ) );
#232 = EDGE_CURVE ( 'NONE', #224, #224, #125, .T. ) ;
#233 = DIRECTION ( 'NONE',  ( -3.491481338843133355E-15, 9.031770143711729009E-17, -1.000000000000000000 ) ) ;
#234 = DIRECTION ( 'NONE',  ( -3.491481338843133355E-15, 9.031770143711729009E-17, -1.000000000000000000 ) ) ;
#235 = AXIS2_PLACEMENT_3D ( 'NONE', #199, #181, #229 ) ;
#236 = VERTEX_POINT ( 'NONE', #23 ) ;
#237 = DIRECTION ( 'NONE',  ( -3.491481338843133355E-15, -5.535233509885845689E-16, -1.000000000000000000 ) ) ;
#238 = EDGE_LOOP ( 'NONE', ( #136 ) ) ;
#239 = DIRECTION ( 'NONE',  ( 0.0000000000000000000, 1.000000000000000000, 0.0000000000000000000 ) ) ;
#240 = APPLICATION_CONTEXT ( 'configuration controlled 3d designs of mechanical parts and assemblies' ) ;
#241 = PLANE ( 'NONE',  #127 ) ;
#242 = PLANE ( 'NONE',  #48 ) ;
#243 = ORIENTED_EDGE ( 'NONE', *, *, #223, .F. ) ;
ENDSEC;
END-ISO-10303-21;
