ISO-10303-21;
HEADER;
FILE_DESCRIPTION (( 'STEP AP203' ),
    '1' );
FILE_NAME ('321501.step',
    '2021-11-26T10:04:28',
    ( '' ),
    ( '' ),
    'SwSTEP 2.0',
    'SolidWorks 2019',
    '' );
FILE_SCHEMA (( 'CONFIG_CONTROL_DESIGN' ));
ENDSEC;

DATA;
#1 = PERSON_AND_ORGANIZATION ( #190, #163 ) ;
#2 = DIRECTION ( 'NONE',  ( 0.0000000000000000000, 1.000000000000000000, 0.0000000000000000000 ) ) ;
#3 = MECHANICAL_CONTEXT ( 'NONE', #222, 'mechanical' ) ;
#4 = EDGE_CURVE ( 'NONE', #21, #21, #116, .T. ) ;
#5 = DIRECTION ( 'NONE',  ( 0.0000000000000000000, 0.0000000000000000000, 1.000000000000000000 ) ) ;
#6 = CONICAL_SURFACE ( 'NONE', #176, 2.988999999999999879, 0.5235987755982932645 ) ;
#7 = LOCAL_TIME ( 11, 4, 28.00000000000000000, #132 ) ;
#8 = APPROVAL ( #238, 'UNSPECIFIED' ) ;
#9 = DIRECTION ( 'NONE',  ( -2.061885520923108659E-30, 1.000000000000000000, -5.803691789818708244E-16 ) ) ;
#10 = ADVANCED_FACE ( 'NONE', ( #93, #107 ), #6, .T. ) ;
#11 = EDGE_LOOP ( 'NONE', ( #84 ) ) ;
#12 = DIRECTION ( 'NONE',  ( -3.491481338843133355E-15, -5.529602039854001162E-16, -1.000000000000000000 ) ) ;
#13 = LOCAL_TIME ( 11, 4, 28.00000000000000000, #19 ) ;
#14 = DIRECTION ( 'NONE',  ( -3.491481338843133355E-15, 9.031770143711729009E-17, -1.000000000000000000 ) ) ;
#15 = CLOSED_SHELL ( 'NONE', ( #95, #154, #152, #10, #126 ) ) ;
#16 = FACE_OUTER_BOUND ( 'NONE', #105, .T. ) ;
#17 = DIRECTION ( 'NONE',  ( 3.153425691349006731E-31, 1.000000000000000000, 9.031770143711729009E-17 ) ) ;
#18 =( NAMED_UNIT ( * ) SI_UNIT ( $, .STERADIAN. ) SOLID_ANGLE_UNIT ( ) );
#19 = COORDINATED_UNIVERSAL_TIME_OFFSET ( 1, 0, .AHEAD. ) ;
#20 = AXIS2_PLACEMENT_3D ( 'NONE', #138, #47, #198 ) ;
#21 = VERTEX_POINT ( 'NONE', #65 ) ;
#22 = EDGE_CURVE ( 'NONE', #48, #48, #121, .T. ) ;
#23 = CARTESIAN_POINT ( 'NONE',  ( 4.885231259955590439E-14, 1.999999999999990452, 13.99185842870425134 ) ) ;
#24 = APPROVAL_DATE_TIME ( #200, #33 ) ;
#25 = CARTESIAN_POINT ( 'NONE',  ( 4.287141118079896423E-14, 2.988999999999998547, 12.27886018001859547 ) ) ;
#26 = PLANE ( 'NONE',  #85 ) ;
#27 = CLOSED_SHELL ( 'NONE', ( #53, #243, #173, #170 ) ) ;
#28 = VERTEX_POINT ( 'NONE', #25 ) ;
#29 = PERSON_AND_ORGANIZATION ( #190, #163 ) ;
#30 = ORIENTED_EDGE ( 'NONE', *, *, #79, .T. ) ;
#31 = DIRECTION ( 'NONE',  ( -3.491481338843133355E-15, 9.031770143711729009E-17, -1.000000000000000000 ) ) ;
#32 = ORIENTED_EDGE ( 'NONE', *, *, #22, .F. ) ;
#33 = APPROVAL ( #87, 'UNSPECIFIED' ) ;
#34 = PERSON_AND_ORGANIZATION_ROLE ( 'creator' ) ;
#35 = EDGE_LOOP ( 'NONE', ( #234 ) ) ;
#36 = PLANE ( 'NONE',  #180 ) ;
#37 = CALENDAR_DATE ( 2021, 26, 11 ) ;
#38 = DIRECTION ( 'NONE',  ( 3.153425691349006731E-31, 1.000000000000000000, 9.031770143711729009E-17 ) ) ;
#39 = AXIS2_PLACEMENT_3D ( 'NONE', #169, #148, #38 ) ;
#40 = FACE_OUTER_BOUND ( 'NONE', #196, .T. ) ;
#41 = DIRECTION ( 'NONE',  ( 0.0000000000000000000, 1.000000000000000000, 0.0000000000000000000 ) ) ;
#42 = DIRECTION ( 'NONE',  ( 1.930650233337916928E-30, -1.000000000000000000, 5.529602039854001162E-16 ) ) ;
#43 = CYLINDRICAL_SURFACE ( 'NONE', #63, 1.999999999999993561 ) ;
#44 = PRODUCT_DEFINITION_FORMATION_WITH_SPECIFIED_SOURCE ( 'ANY', '', #164, .NOT_KNOWN. ) ;
#45 = DIRECTION ( 'NONE',  ( -1.930650233337916928E-30, 1.000000000000000000, -5.529602039854001162E-16 ) ) ;
#46 = PERSON_AND_ORGANIZATION ( #190, #163 ) ;
#47 = DIRECTION ( 'NONE',  ( -3.491481338843133355E-15, -5.529602039854001162E-16, -1.000000000000000000 ) ) ;
#48 = VERTEX_POINT ( 'NONE', #155 ) ;
#49 = LOCAL_TIME ( 11, 4, 28.00000000000000000, #210 ) ;
#50 =( LENGTH_UNIT ( ) NAMED_UNIT ( * ) SI_UNIT ( .MILLI., .METRE. ) );
#51 = ORIENTED_EDGE ( 'NONE', *, *, #22, .T. ) ;
#52 = COORDINATED_UNIVERSAL_TIME_OFFSET ( 1, 0, .AHEAD. ) ;
#53 = ADVANCED_FACE ( 'NONE', ( #166 ), #36, .T. ) ;
#54 = CARTESIAN_POINT ( 'NONE',  ( 4.287141118079896423E-14, -1.108998427727027820E-15, 12.27886018001859547 ) ) ;
#55 = AXIS2_PLACEMENT_3D ( 'NONE', #242, #12, #112 ) ;
#56 = CC_DESIGN_PERSON_AND_ORGANIZATION_ASSIGNMENT ( #94, #34, ( #201 ) ) ;
#57 = FACE_OUTER_BOUND ( 'NONE', #89, .T. ) ;
#58 = AXIS2_PLACEMENT_3D ( 'NONE', #134, #218, #231 ) ;
#59 = SECURITY_CLASSIFICATION ( '', '', #168 ) ;
#60 = CARTESIAN_POINT ( 'NONE',  ( 2.779219145719134403E-13, -7.189289034394536528E-15, 79.60000000000000853 ) ) ;
#61 = FACE_BOUND ( 'NONE', #102, .T. ) ;
#62 = PLANE ( 'NONE',  #227 ) ;
#63 = AXIS2_PLACEMENT_3D ( 'NONE', #147, #194, #17 ) ;
#64 = CARTESIAN_POINT ( 'NONE',  ( 1.396592535537259061E-15, 2.211840815941609635E-16, 0.4000000000000016320 ) ) ;
#65 = CARTESIAN_POINT ( 'NONE',  ( 2.779219145719134403E-13, 1.999999999999988010, 79.60000000000000853 ) ) ;
#66 = DIRECTION ( 'NONE',  ( -3.491481338843133355E-15, -5.529602039854001162E-16, -1.000000000000000000 ) ) ;
#67 = CALENDAR_DATE ( 2021, 26, 11 ) ;
#68 = ORIENTED_EDGE ( 'NONE', *, *, #4, .T. ) ;
#69 = VERTEX_POINT ( 'NONE', #98 ) ;
#70 = APPROVAL_ROLE ( '' ) ;
#71 = CC_DESIGN_APPROVAL ( #8, ( #44 ) ) ;
#72 = APPROVAL_DATE_TIME ( #124, #8 ) ;
#73 = CARTESIAN_POINT ( 'NONE',  ( 4.287141118079897054E-14, 6.789721029851291068E-15, 12.27886018001859725 ) ) ;
#74 = EDGE_CURVE ( 'NONE', #69, #69, #193, .T. ) ;
#75 = EDGE_LOOP ( 'NONE', ( #206 ) ) ;
#76 = DIRECTION ( 'NONE',  ( -3.153425691349006731E-31, -1.000000000000000000, -9.031770143711729009E-17 ) ) ;
#77 = AXIS2_PLACEMENT_3D ( 'NONE', #92, #239, #192 ) ;
#78 = FACE_BOUND ( 'NONE', #183, .T. ) ;
#79 = EDGE_CURVE ( 'NONE', #117, #117, #230, .T. ) ;
#80 = PRODUCT_DEFINITION_SHAPE ( 'NONE', 'NONE',  #201 ) ;
#81 = PERSON_AND_ORGANIZATION_ROLE ( 'design_supplier' ) ;
#82 = UNCERTAINTY_MEASURE_WITH_UNIT (LENGTH_MEASURE( 1.000000000000000082E-05 ), #50, 'distance_accuracy_value', 'NONE');
#83 = DIRECTION ( 'NONE',  ( -3.491481338843133355E-15, 9.031770143711729009E-17, -1.000000000000000000 ) ) ;
#84 = ORIENTED_EDGE ( 'NONE', *, *, #209, .T. ) ;
#85 = AXIS2_PLACEMENT_3D ( 'NONE', #237, #226, #76 ) ;
#86 = DIRECTION ( 'NONE',  ( 1.000000000000000000, 0.0000000000000000000, 0.0000000000000000000 ) ) ;
#87 = APPROVAL_STATUS ( 'not_yet_approved' ) ;
#88 = APPLICATION_PROTOCOL_DEFINITION ( 'international standard', 'config_control_design', 1994, #222 ) ;
#89 = EDGE_LOOP ( 'NONE', ( #68 ) ) ;
#90 = CARTESIAN_POINT ( 'NONE',  ( 4.287141118079896423E-14, -1.108998427727027820E-15, 12.27886018001859547 ) ) ;
#91 = EDGE_CURVE ( 'NONE', #28, #28, #156, .T. ) ;
#92 = CARTESIAN_POINT ( 'NONE',  ( 4.885231259955590439E-14, -1.263712492114123682E-15, 13.99185842870425134 ) ) ;
#93 = FACE_BOUND ( 'NONE', #191, .T. ) ;
#94 = PERSON_AND_ORGANIZATION ( #190, #163 ) ;
#95 = ADVANCED_FACE ( 'NONE', ( #103 ), #26, .T. ) ;
#96 =( NAMED_UNIT ( * ) PLANE_ANGLE_UNIT ( ) SI_UNIT ( $, .RADIAN. ) );
#97 = PERSON_AND_ORGANIZATION_ROLE ( 'design_owner' ) ;
#98 = CARTESIAN_POINT ( 'NONE',  ( 2.793185071074506684E-13, 1.599999999999987876, 80.00000000000000000 ) ) ;
#99 = CIRCLE ( 'NONE', #130, 2.988999999999999879 ) ;
#100 = COORDINATED_UNIVERSAL_TIME_OFFSET ( 1, 0, .AHEAD. ) ;
#101 = CARTESIAN_POINT ( 'NONE',  ( 4.287141118079896423E-14, 2.988999999999998547, 12.27886018001859547 ) ) ;
#102 = EDGE_LOOP ( 'NONE', ( #32 ) ) ;
#103 = FACE_OUTER_BOUND ( 'NONE', #207, .T. ) ;
#104 = EDGE_LOOP ( 'NONE', ( #106 ) ) ;
#105 = EDGE_LOOP ( 'NONE', ( #123 ) ) ;
#106 = ORIENTED_EDGE ( 'NONE', *, *, #108, .F. ) ;
#107 = FACE_OUTER_BOUND ( 'NONE', #104, .T. ) ;
#108 = EDGE_CURVE ( 'NONE', #223, #223, #99, .T. ) ;
#109 = MANIFOLD_SOLID_BREP ( 'Corps-Déplacer/Copier1[1]', #15 ) ;
#110 = DIRECTION ( 'NONE',  ( 0.0000000000000000000, 1.000000000000000000, 0.0000000000000000000 ) ) ;
#111 = ORIENTED_EDGE ( 'NONE', *, *, #4, .F. ) ;
#112 = DIRECTION ( 'NONE',  ( -1.930650233337916928E-30, 1.000000000000000000, -5.529602039854001162E-16 ) ) ;
#113 = AXIS2_PLACEMENT_3D ( 'NONE', #232, #5, #86 ) ;
#114 = FACE_OUTER_BOUND ( 'NONE', #75, .T. ) ;
#115 = APPROVAL_DATE_TIME ( #203, #214 ) ;
#116 = CIRCLE ( 'NONE', #153, 1.999999999999995337 ) ;
#117 = VERTEX_POINT ( 'NONE', #23 ) ;
#118 = CC_DESIGN_PERSON_AND_ORGANIZATION_ASSIGNMENT ( #1, #97, ( #164 ) ) ;
#119 = APPLICATION_PROTOCOL_DEFINITION ( 'international standard', 'config_control_design', 1994, #241 ) ;
#120 = CALENDAR_DATE ( 2021, 26, 11 ) ;
#121 = CIRCLE ( 'NONE', #55, 2.758059892324148610 ) ;
#122 = CALENDAR_DATE ( 2021, 26, 11 ) ;
#123 = ORIENTED_EDGE ( 'NONE', *, *, #108, .T. ) ;
#124 = DATE_AND_TIME ( #182, #150 ) ;
#125 = EDGE_LOOP ( 'NONE', ( #51 ) ) ;
#126 = ADVANCED_FACE ( 'NONE', ( #16 ), #195, .T. ) ;
#127 = PERSON_AND_ORGANIZATION_ROLE ( 'classification_officer' ) ;
#128 = DESIGN_CONTEXT ( 'detailed design', #241, 'design' ) ;
#129 = DIRECTION ( 'NONE',  ( 0.0000000000000000000, 1.000000000000000000, 0.0000000000000000000 ) ) ;
#130 = AXIS2_PLACEMENT_3D ( 'NONE', #54, #31, #140 ) ;
#131 = APPROVAL_PERSON_ORGANIZATION ( #135, #214, #172 ) ;
#132 = COORDINATED_UNIVERSAL_TIME_OFFSET ( 1, 0, .AHEAD. ) ;
#133 = CARTESIAN_POINT ( 'NONE',  ( 4.287141118079897054E-14, 6.789721029851291857E-15, 12.27886018001859725 ) ) ;
#134 = CARTESIAN_POINT ( 'NONE',  ( 5.324848974675567562E-30, 8.433181476500909071E-31, 1.525097360663511848E-15 ) ) ;
#135 = PERSON_AND_ORGANIZATION ( #190, #163 ) ;
#136 = DIRECTION ( 'NONE',  ( -3.491481338843133355E-15, -5.529602039854001162E-16, -1.000000000000000000 ) ) ;
#137 = ADVANCED_BREP_SHAPE_REPRESENTATION ( '321501', ( #109, #188, #113 ), #141 ) ;
#138 = CARTESIAN_POINT ( 'NONE',  ( 0.0000000000000000000, 0.0000000000000000000, 0.0000000000000000000 ) ) ;
#139 = AXIS2_PLACEMENT_3D ( 'NONE', #184, #14, #129 ) ;
#140 = DIRECTION ( 'NONE',  ( 0.0000000000000000000, 1.000000000000000000, 0.0000000000000000000 ) ) ;
#141 =( GEOMETRIC_REPRESENTATION_CONTEXT ( 3 ) GLOBAL_UNCERTAINTY_ASSIGNED_CONTEXT ( ( #82 ) ) GLOBAL_UNIT_ASSIGNED_CONTEXT ( ( #50, #96, #18 ) ) REPRESENTATION_CONTEXT ( 'NONE', 'WORKASPACE' ) );
#142 = PERSON_AND_ORGANIZATION ( #190, #163 ) ;
#143 = ORIENTED_EDGE ( 'NONE', *, *, #74, .T. ) ;
#144 = PERSON_AND_ORGANIZATION ( #190, #163 ) ;
#145 = CONICAL_SURFACE ( 'NONE', #202, 1.999999999999995337, 0.7853981633974516097 ) ;
#146 = CC_DESIGN_APPROVAL ( #33, ( #201 ) ) ;
#147 = CARTESIAN_POINT ( 'NONE',  ( 0.0000000000000000000, 0.0000000000000000000, 0.0000000000000000000 ) ) ;
#148 = DIRECTION ( 'NONE',  ( -3.491481338843133355E-15, 9.031770143711729009E-17, -1.000000000000000000 ) ) ;
#149 = CC_DESIGN_DATE_AND_TIME_ASSIGNMENT ( #157, #236, ( #201 ) ) ;
#150 = LOCAL_TIME ( 11, 4, 28.00000000000000000, #52 ) ;
#151 = FACE_OUTER_BOUND ( 'NONE', #125, .T. ) ;
#152 = ADVANCED_FACE ( 'NONE', ( #57, #40 ), #43, .T. ) ;
#153 = AXIS2_PLACEMENT_3D ( 'NONE', #60, #162, #41 ) ;
#154 = ADVANCED_FACE ( 'NONE', ( #78, #174 ), #145, .T. ) ;
#155 = CARTESIAN_POINT ( 'NONE',  ( 0.0000000000000000000, 2.758059892324148610, 0.0000000000000000000 ) ) ;
#156 = CIRCLE ( 'NONE', #216, 2.988999999999991886 ) ;
#157 = DATE_AND_TIME ( #122, #167 ) ;
#158 = APPROVAL_PERSON_ORGANIZATION ( #46, #33, #70 ) ;
#159 = PERSON_AND_ORGANIZATION ( #190, #163 ) ;
#160 = EDGE_LOOP ( 'NONE', ( #111 ) ) ;
#161 = CC_DESIGN_PERSON_AND_ORGANIZATION_ASSIGNMENT ( #159, #81, ( #44 ) ) ;
#162 = DIRECTION ( 'NONE',  ( -3.491481338843133355E-15, 9.031770143711729009E-17, -1.000000000000000000 ) ) ;
#163 = ORGANIZATION ( 'UNSPECIFIED', 'UNSPECIFIED', '' ) ;
#164 = PRODUCT ( '321501', '321501', '', ( #3 ) ) ;
#165 = CC_DESIGN_PERSON_AND_ORGANIZATION_ASSIGNMENT ( #29, #181, ( #44 ) ) ;
#166 = FACE_OUTER_BOUND ( 'NONE', #35, .T. ) ;
#167 = LOCAL_TIME ( 11, 4, 28.00000000000000000, #100 ) ;
#168 = SECURITY_CLASSIFICATION_LEVEL ( 'unclassified' ) ;
#169 = CARTESIAN_POINT ( 'NONE',  ( 4.287141118079897054E-14, 2.988999999999998547, 12.27886018001859725 ) ) ;
#170 = ADVANCED_FACE ( 'NONE', ( #151 ), #62, .T. ) ;
#171 = CARTESIAN_POINT ( 'NONE',  ( 2.779219145719134403E-13, -7.189289034394536528E-15, 79.60000000000000853 ) ) ;
#172 = APPROVAL_ROLE ( '' ) ;
#173 = ADVANCED_FACE ( 'NONE', ( #211, #61 ), #185, .T. ) ;
#174 = FACE_OUTER_BOUND ( 'NONE', #160, .T. ) ;
#175 = VERTEX_POINT ( 'NONE', #235 ) ;
#176 = AXIS2_PLACEMENT_3D ( 'NONE', #90, #208, #110 ) ;
#177 = APPROVAL_PERSON_ORGANIZATION ( #142, #8, #178 ) ;
#178 = APPROVAL_ROLE ( '' ) ;
#179 = ORIENTED_EDGE ( 'NONE', *, *, #91, .T. ) ;
#180 = AXIS2_PLACEMENT_3D ( 'NONE', #133, #189, #42 ) ;
#181 = PERSON_AND_ORGANIZATION_ROLE ( 'creator' ) ;
#182 = CALENDAR_DATE ( 2021, 26, 11 ) ;
#183 = EDGE_LOOP ( 'NONE', ( #143 ) ) ;
#184 = CARTESIAN_POINT ( 'NONE',  ( 2.793185071074506684E-13, -7.225416114969383207E-15, 80.00000000000000000 ) ) ;
#185 = CONICAL_SURFACE ( 'NONE', #58, 2.758059892324148610, 0.5235987755982969283 ) ;
#186 = DATE_AND_TIME ( #37, #49 ) ;
#187 = SHAPE_DEFINITION_REPRESENTATION ( #80, #137 ) ;
#188 = MANIFOLD_SOLID_BREP ( 'Corps-Déplacer/Copier1[2]', #27 ) ;
#189 = DIRECTION ( 'NONE',  ( 3.491481338843133355E-15, 5.529602039854001162E-16, 1.000000000000000000 ) ) ;
#190 = PERSON ( 'UNSPECIFIED', 'UNSPECIFIED', 'UNSPECIFIED', ('UNSPECIFIED'), ('UNSPECIFIED'), ('UNSPECIFIED') ) ;
#191 = EDGE_LOOP ( 'NONE', ( #30 ) ) ;
#192 = DIRECTION ( 'NONE',  ( 0.0000000000000000000, 1.000000000000000000, 0.0000000000000000000 ) ) ;
#193 = CIRCLE ( 'NONE', #139, 1.599999999999994982 ) ;
#194 = DIRECTION ( 'NONE',  ( -3.491481338843133355E-15, 9.031770143711729009E-17, -1.000000000000000000 ) ) ;
#195 = PLANE ( 'NONE',  #39 ) ;
#196 = EDGE_LOOP ( 'NONE', ( #213 ) ) ;
#197 = FACE_OUTER_BOUND ( 'NONE', #225, .T. ) ;
#198 = DIRECTION ( 'NONE',  ( -1.930650233337916928E-30, 1.000000000000000000, -5.529602039854002148E-16 ) ) ;
#199 = CIRCLE ( 'NONE', #228, 2.988999999999998103 ) ;
#200 = DATE_AND_TIME ( #67, #13 ) ;
#201 = PRODUCT_DEFINITION ( 'UNKNOWN', '', #44, #128 ) ;
#202 = AXIS2_PLACEMENT_3D ( 'NONE', #171, #83, #2 ) ;
#203 = DATE_AND_TIME ( #120, #7 ) ;
#204 = DIRECTION ( 'NONE',  ( -3.491481338843133355E-15, -5.529602039854001162E-16, -1.000000000000000000 ) ) ;
#205 = CC_DESIGN_APPROVAL ( #214, ( #59 ) ) ;
#206 = ORIENTED_EDGE ( 'NONE', *, *, #209, .F. ) ;
#207 = EDGE_LOOP ( 'NONE', ( #212 ) ) ;
#208 = DIRECTION ( 'NONE',  ( -3.491481338843133355E-15, 9.031770143711729009E-17, -1.000000000000000000 ) ) ;
#209 = EDGE_CURVE ( 'NONE', #175, #175, #199, .T. ) ;
#210 = COORDINATED_UNIVERSAL_TIME_OFFSET ( 1, 0, .AHEAD. ) ;
#211 = FACE_OUTER_BOUND ( 'NONE', #11, .T. ) ;
#212 = ORIENTED_EDGE ( 'NONE', *, *, #74, .F. ) ;
#213 = ORIENTED_EDGE ( 'NONE', *, *, #79, .F. ) ;
#214 = APPROVAL ( #215, 'UNSPECIFIED' ) ;
#215 = APPROVAL_STATUS ( 'not_yet_approved' ) ;
#216 = AXIS2_PLACEMENT_3D ( 'NONE', #73, #204, #9 ) ;
#217 = CC_DESIGN_SECURITY_CLASSIFICATION ( #59, ( #44 ) ) ;
#218 = DIRECTION ( 'NONE',  ( 3.491481338843133355E-15, 5.529602039854001162E-16, 1.000000000000000000 ) ) ;
#219 = DATE_TIME_ROLE ( 'classification_date' ) ;
#220 = DIRECTION ( 'NONE',  ( -1.933017675865410383E-30, 1.000000000000000000, -5.440961052955027762E-16 ) ) ;
#221 = CYLINDRICAL_SURFACE ( 'NONE', #20, 2.988999999999994994 ) ;
#222 = APPLICATION_CONTEXT ( 'configuration controlled 3d designs of mechanical parts and assemblies' ) ;
#223 = VERTEX_POINT ( 'NONE', #101 ) ;
#224 = CC_DESIGN_DATE_AND_TIME_ASSIGNMENT ( #186, #219, ( #59 ) ) ;
#225 = EDGE_LOOP ( 'NONE', ( #179 ) ) ;
#226 = DIRECTION ( 'NONE',  ( 3.491481338843133355E-15, -9.031770143711729009E-17, 1.000000000000000000 ) ) ;
#227 = AXIS2_PLACEMENT_3D ( 'NONE', #229, #66, #45 ) ;
#228 = AXIS2_PLACEMENT_3D ( 'NONE', #64, #136, #220 ) ;
#229 = CARTESIAN_POINT ( 'NONE',  ( -2.662424487337783781E-30, 2.758059892324148610, -7.625486803317559240E-16 ) ) ;
#230 = CIRCLE ( 'NONE', #77, 1.999999999999991784 ) ;
#231 = DIRECTION ( 'NONE',  ( 1.930650233337916928E-30, -1.000000000000000000, 5.529602039854001162E-16 ) ) ;
#232 = CARTESIAN_POINT ( 'NONE',  ( 0.0000000000000000000, 0.0000000000000000000, 0.0000000000000000000 ) ) ;
#233 = CC_DESIGN_PERSON_AND_ORGANIZATION_ASSIGNMENT ( #144, #127, ( #59 ) ) ;
#234 = ORIENTED_EDGE ( 'NONE', *, *, #91, .F. ) ;
#235 = CARTESIAN_POINT ( 'NONE',  ( 1.396592535537253342E-15, 2.988999999999998547, 0.4000000000000000222 ) ) ;
#236 = DATE_TIME_ROLE ( 'creation_date' ) ;
#237 = CARTESIAN_POINT ( 'NONE',  ( 2.793185071074506684E-13, -7.225416114969383207E-15, 80.00000000000000000 ) ) ;
#238 = APPROVAL_STATUS ( 'not_yet_approved' ) ;
#239 = DIRECTION ( 'NONE',  ( -3.491481338843133355E-15, 9.031770143711729009E-17, -1.000000000000000000 ) ) ;
#240 = PRODUCT_RELATED_PRODUCT_CATEGORY ( 'detail', '', ( #164 ) ) ;
#241 = APPLICATION_CONTEXT ( 'configuration controlled 3d designs of mechanical parts and assemblies' ) ;
#242 = CARTESIAN_POINT ( 'NONE',  ( 5.324848974675567562E-30, 8.433181476500909071E-31, 1.525097360663511848E-15 ) ) ;
#243 = ADVANCED_FACE ( 'NONE', ( #197, #114 ), #221, .T. ) ;
ENDSEC;
END-ISO-10303-21;
