ISO-10303-21;
HEADER;
FILE_DESCRIPTION (( 'STEP AP203' ),
    '1' );
FILE_NAME ('321500.step',
    '2021-11-26T10:04:28',
    ( '' ),
    ( '' ),
    'SwSTEP 2.0',
    'SolidWorks 2019',
    '' );
FILE_SCHEMA (( 'CONFIG_CONTROL_DESIGN' ));
ENDSEC;

DATA;
#1 = CARTESIAN_POINT ( 'NONE',  ( 4.885231259955590439E-14, -1.263712492114123682E-15, 13.99185842870425134 ) ) ;
#2 = CARTESIAN_POINT ( 'NONE',  ( 4.290164829616173927E-14, 6.787599879373843346E-15, 12.28752043405643946 ) ) ;
#3 = FACE_OUTER_BOUND ( 'NONE', #148, .T. ) ;
#4 = DIRECTION ( 'NONE',  ( 1.928686787668199294E-30, -1.000000000000000000, 5.523978507951155422E-16 ) ) ;
#5 = DIRECTION ( 'NONE',  ( 3.153425691349006731E-31, 1.000000000000000000, 9.031770143711729009E-17 ) ) ;
#6 = APPROVAL_DATE_TIME ( #85, #209 ) ;
#7 = VERTEX_POINT ( 'NONE', #210 ) ;
#8 = CARTESIAN_POINT ( 'NONE',  ( 2.779219145719134403E-13, -7.189289034394536528E-15, 79.60000000000000853 ) ) ;
#9 = EDGE_LOOP ( 'NONE', ( #222 ) ) ;
#10 = PERSON_AND_ORGANIZATION ( #142, #106 ) ;
#11 = EDGE_LOOP ( 'NONE', ( #237 ) ) ;
#12 = CC_DESIGN_PERSON_AND_ORGANIZATION_ASSIGNMENT ( #217, #108, ( #48 ) ) ;
#13 = PERSON_AND_ORGANIZATION ( #142, #106 ) ;
#14 = ORIENTED_EDGE ( 'NONE', *, *, #26, .F. ) ;
#15 = ORIENTED_EDGE ( 'NONE', *, *, #133, .T. ) ;
#16 = ORIENTED_EDGE ( 'NONE', *, *, #243, .T. ) ;
#17 = ADVANCED_FACE ( 'NONE', ( #201, #20 ), #143, .T. ) ;
#18 = CC_DESIGN_APPROVAL ( #209, ( #35 ) ) ;
#19 = DIRECTION ( 'NONE',  ( -1.928686787668199294E-30, 1.000000000000000000, -5.523978507951155422E-16 ) ) ;
#20 = FACE_OUTER_BOUND ( 'NONE', #180, .T. ) ;
#21 = CARTESIAN_POINT ( 'NONE',  ( 5.309790239984821859E-30, 8.400780162016717583E-31, 1.520784367630092270E-15 ) ) ;
#22 = DIRECTION ( 'NONE',  ( -3.491481338843133355E-15, 9.031770143711729009E-17, -1.000000000000000000 ) ) ;
#23 = LOCAL_TIME ( 11, 4, 28.00000000000000000, #88 ) ;
#24 = DIRECTION ( 'NONE',  ( -3.491481338843133355E-15, 9.031770143711729009E-17, -1.000000000000000000 ) ) ;
#25 = DIRECTION ( 'NONE',  ( 0.0000000000000000000, 0.0000000000000000000, 1.000000000000000000 ) ) ;
#26 = EDGE_CURVE ( 'NONE', #161, #161, #60, .T. ) ;
#27 = PERSON_AND_ORGANIZATION ( #142, #106 ) ;
#28 = APPROVAL_PERSON_ORGANIZATION ( #13, #73, #131 ) ;
#29 = VERTEX_POINT ( 'NONE', #192 ) ;
#30 = DIRECTION ( 'NONE',  ( -3.491481338843133355E-15, 9.031770143711729009E-17, -1.000000000000000000 ) ) ;
#31 = CC_DESIGN_PERSON_AND_ORGANIZATION_ASSIGNMENT ( #10, #104, ( #125 ) ) ;
#32 = PERSON_AND_ORGANIZATION ( #142, #106 ) ;
#33 = LOCAL_TIME ( 11, 4, 28.00000000000000000, #240 ) ;
#34 = ORIENTED_EDGE ( 'NONE', *, *, #196, .F. ) ;
#35 = PRODUCT_DEFINITION ( 'UNKNOWN', '', #125, #40 ) ;
#36 = AXIS2_PLACEMENT_3D ( 'NONE', #94, #186, #96 ) ;
#37 = COORDINATED_UNIVERSAL_TIME_OFFSET ( 1, 0, .AHEAD. ) ;
#38 = CC_DESIGN_PERSON_AND_ORGANIZATION_ASSIGNMENT ( #32, #219, ( #125 ) ) ;
#39 = ORIENTED_EDGE ( 'NONE', *, *, #44, .T. ) ;
#40 = DESIGN_CONTEXT ( 'detailed design', #70, 'design' ) ;
#41 = CARTESIAN_POINT ( 'NONE',  ( 2.779219145719134403E-13, -7.189289034394536528E-15, 79.60000000000000853 ) ) ;
#42 = CARTESIAN_POINT ( 'NONE',  ( 2.793185071074506684E-13, -7.225416114969383207E-15, 80.00000000000000000 ) ) ;
#43 = PLANE ( 'NONE',  #155 ) ;
#44 = EDGE_CURVE ( 'NONE', #29, #29, #128, .T. ) ;
#45 = CYLINDRICAL_SURFACE ( 'NONE', #185, 2.983999999999995545 ) ;
#46 = CIRCLE ( 'NONE', #98, 1.999999999999991784 ) ;
#47 = DIRECTION ( 'NONE',  ( -1.928686787668198944E-30, 1.000000000000000000, -5.523978507951155422E-16 ) ) ;
#48 = SECURITY_CLASSIFICATION ( '', '', #74 ) ;
#49 = CC_DESIGN_DATE_AND_TIME_ASSIGNMENT ( #231, #102, ( #35 ) ) ;
#50 = APPROVAL_STATUS ( 'not_yet_approved' ) ;
#51 = APPROVAL_STATUS ( 'not_yet_approved' ) ;
#52 = CALENDAR_DATE ( 2021, 26, 11 ) ;
#53 = AXIS2_PLACEMENT_3D ( 'NONE', #171, #169, #174 ) ;
#54 = ADVANCED_FACE ( 'NONE', ( #228, #78 ), #137, .T. ) ;
#55 = DATE_TIME_ROLE ( 'classification_date' ) ;
#56 = APPLICATION_CONTEXT ( 'configuration controlled 3d designs of mechanical parts and assemblies' ) ;
#57 = DATE_AND_TIME ( #146, #76 ) ;
#58 = EDGE_LOOP ( 'NONE', ( #132 ) ) ;
#59 = CARTESIAN_POINT ( 'NONE',  ( 2.793185071074506684E-13, -7.225416114969383207E-15, 80.00000000000000000 ) ) ;
#60 = CIRCLE ( 'NONE', #36, 2.983999999999991992 ) ;
#61 = FACE_OUTER_BOUND ( 'NONE', #179, .T. ) ;
#62 = PLANE ( 'NONE',  #220 ) ;
#63 = CARTESIAN_POINT ( 'NONE',  ( 0.0000000000000000000, 0.0000000000000000000, 0.0000000000000000000 ) ) ;
#64 = AXIS2_PLACEMENT_3D ( 'NONE', #63, #95, #5 ) ;
#65 = ADVANCED_FACE ( 'NONE', ( #61 ), #43, .T. ) ;
#66 = DIRECTION ( 'NONE',  ( 3.491481338843133355E-15, -9.031770143711729009E-17, 1.000000000000000000 ) ) ;
#67 = MANIFOLD_SOLID_BREP ( 'Corps-Déplacer/Copier1[1]', #135 ) ;
#68 = VERTEX_POINT ( 'NONE', #69 ) ;
#69 = CARTESIAN_POINT ( 'NONE',  ( 4.885231259955590439E-14, 1.999999999999990452, 13.99185842870425134 ) ) ;
#70 = APPLICATION_CONTEXT ( 'configuration controlled 3d designs of mechanical parts and assemblies' ) ;
#71 = LOCAL_TIME ( 11, 4, 28.00000000000000000, #124 ) ;
#72 = APPROVAL_ROLE ( '' ) ;
#73 = APPROVAL ( #163, 'UNSPECIFIED' ) ;
#74 = SECURITY_CLASSIFICATION_LEVEL ( 'unclassified' ) ;
#75 = EDGE_LOOP ( 'NONE', ( #15 ) ) ;
#76 = LOCAL_TIME ( 11, 4, 28.00000000000000000, #37 ) ;
#77 = DIRECTION ( 'NONE',  ( 1.928686787668199294E-30, -1.000000000000000000, 5.523978507951155422E-16 ) ) ;
#78 = FACE_OUTER_BOUND ( 'NONE', #89, .T. ) ;
#79 = DIRECTION ( 'NONE',  ( -3.491481338843133355E-15, -5.523978507951155422E-16, -1.000000000000000000 ) ) ;
#80 = PLANE ( 'NONE',  #238 ) ;
#81 = DIRECTION ( 'NONE',  ( -3.491481338843133355E-15, -5.523978507951155422E-16, -1.000000000000000000 ) ) ;
#82 = PERSON_AND_ORGANIZATION ( #142, #106 ) ;
#83 = PERSON_AND_ORGANIZATION ( #142, #106 ) ;
#84 = APPLICATION_PROTOCOL_DEFINITION ( 'international standard', 'config_control_design', 1994, #56 ) ;
#85 = DATE_AND_TIME ( #52, #181 ) ;
#86 = PRODUCT_RELATED_PRODUCT_CATEGORY ( 'detail', '', ( #221 ) ) ;
#87 = EDGE_LOOP ( 'NONE', ( #184 ) ) ;
#88 = COORDINATED_UNIVERSAL_TIME_OFFSET ( 1, 0, .AHEAD. ) ;
#89 = EDGE_LOOP ( 'NONE', ( #107 ) ) ;
#90 = AXIS2_PLACEMENT_3D ( 'NONE', #8, #191, #158 ) ;
#91 = ADVANCED_BREP_SHAPE_REPRESENTATION ( '321500', ( #67, #214, #208 ), #151 ) ;
#92 = FACE_BOUND ( 'NONE', #75, .T. ) ;
#93 = DIRECTION ( 'NONE',  ( 0.0000000000000000000, 1.000000000000000000, 0.0000000000000000000 ) ) ;
#94 = CARTESIAN_POINT ( 'NONE',  ( 4.290164829616174558E-14, 6.787599879373844135E-15, 12.28752043405644123 ) ) ;
#95 = DIRECTION ( 'NONE',  ( -3.491481338843133355E-15, 9.031770143711729009E-17, -1.000000000000000000 ) ) ;
#96 = DIRECTION ( 'NONE',  ( -2.065340422935378984E-30, 1.000000000000000000, -5.813416474453122128E-16 ) ) ;
#97 = CARTESIAN_POINT ( 'NONE',  ( 0.0000000000000000000, 0.0000000000000000000, 0.0000000000000000000 ) ) ;
#98 = AXIS2_PLACEMENT_3D ( 'NONE', #1, #24, #199 ) ;
#99 = CALENDAR_DATE ( 2021, 26, 11 ) ;
#100 = ADVANCED_FACE ( 'NONE', ( #227, #189 ), #116, .T. ) ;
#101 = CARTESIAN_POINT ( 'NONE',  ( 2.793185071074506684E-13, 1.599999999999987876, 80.00000000000000000 ) ) ;
#102 = DATE_TIME_ROLE ( 'creation_date' ) ;
#103 = CC_DESIGN_PERSON_AND_ORGANIZATION_ASSIGNMENT ( #83, #195, ( #221 ) ) ;
#104 = PERSON_AND_ORGANIZATION_ROLE ( 'creator' ) ;
#105 = ORIENTED_EDGE ( 'NONE', *, *, #243, .F. ) ;
#106 = ORGANIZATION ( 'UNSPECIFIED', 'UNSPECIFIED', '' ) ;
#107 = ORIENTED_EDGE ( 'NONE', *, *, #133, .F. ) ;
#108 = PERSON_AND_ORGANIZATION_ROLE ( 'classification_officer' ) ;
#109 = EDGE_LOOP ( 'NONE', ( #16 ) ) ;
#110 = DIRECTION ( 'NONE',  ( -3.491481338843133355E-15, -5.523978507951155422E-16, -1.000000000000000000 ) ) ;
#111 = CIRCLE ( 'NONE', #90, 1.999999999999995337 ) ;
#112 = ADVANCED_FACE ( 'NONE', ( #92, #153 ), #172, .T. ) ;
#113 = CARTESIAN_POINT ( 'NONE',  ( 4.290164829616173927E-14, -1.109780601965587314E-15, 12.28752043405643946 ) ) ;
#114 = DIRECTION ( 'NONE',  ( -3.491481338843133355E-15, 9.031770143711729009E-17, -1.000000000000000000 ) ) ;
#115 = CARTESIAN_POINT ( 'NONE',  ( 0.0000000000000000000, 0.0000000000000000000, 0.0000000000000000000 ) ) ;
#116 = CONICAL_SURFACE ( 'NONE', #213, 2.753059892324149160, 0.5235987755982969283 ) ;
#117 = DIRECTION ( 'NONE',  ( 3.491481338843133355E-15, 5.523978507951155422E-16, 1.000000000000000000 ) ) ;
#118 = CC_DESIGN_APPROVAL ( #175, ( #125 ) ) ;
#119 = CARTESIAN_POINT ( 'NONE',  ( 4.290164829616173927E-14, 2.983999999999998654, 12.28752043405643946 ) ) ;
#120 = APPROVAL_ROLE ( '' ) ;
#121 = CIRCLE ( 'NONE', #139, 1.599999999999994982 ) ;
#122 = CARTESIAN_POINT ( 'NONE',  ( 2.779219145719134403E-13, 1.999999999999988010, 79.60000000000000853 ) ) ;
#123 = PRODUCT_DEFINITION_SHAPE ( 'NONE', 'NONE',  #35 ) ;
#124 = COORDINATED_UNIVERSAL_TIME_OFFSET ( 1, 0, .AHEAD. ) ;
#125 = PRODUCT_DEFINITION_FORMATION_WITH_SPECIFIED_SOURCE ( 'ANY', '', #221, .NOT_KNOWN. ) ;
#126 = CALENDAR_DATE ( 2021, 26, 11 ) ;
#127 = EDGE_CURVE ( 'NONE', #206, #206, #147, .T. ) ;
#128 = CIRCLE ( 'NONE', #53, 2.753059892324149160 ) ;
#129 = APPROVAL_PERSON_ORGANIZATION ( #141, #175, #120 ) ;
#130 = CC_DESIGN_SECURITY_CLASSIFICATION ( #48, ( #125 ) ) ;
#131 = APPROVAL_ROLE ( '' ) ;
#132 = ORIENTED_EDGE ( 'NONE', *, *, #127, .F. ) ;
#133 = EDGE_CURVE ( 'NONE', #68, #68, #46, .T. ) ;
#134 = DIRECTION ( 'NONE',  ( -3.491481338843133355E-15, 9.031770143711729009E-17, -1.000000000000000000 ) ) ;
#135 = CLOSED_SHELL ( 'NONE', ( #223, #17, #54, #112, #193 ) ) ;
#136 = CARTESIAN_POINT ( 'NONE',  ( -2.654895119992410930E-30, 2.753059892324149160, -7.603921838150461349E-16 ) ) ;
#137 = CYLINDRICAL_SURFACE ( 'NONE', #64, 1.999999999999993561 ) ;
#138 = DIRECTION ( 'NONE',  ( -3.491481338843133355E-15, 9.031770143711729009E-17, -1.000000000000000000 ) ) ;
#139 = AXIS2_PLACEMENT_3D ( 'NONE', #42, #30, #207 ) ;
#140 =( NAMED_UNIT ( * ) SI_UNIT ( $, .STERADIAN. ) SOLID_ANGLE_UNIT ( ) );
#141 = PERSON_AND_ORGANIZATION ( #142, #106 ) ;
#142 = PERSON ( 'UNSPECIFIED', 'UNSPECIFIED', 'UNSPECIFIED', ('UNSPECIFIED'), ('UNSPECIFIED'), ('UNSPECIFIED') ) ;
#143 = CONICAL_SURFACE ( 'NONE', #145, 1.999999999999995337, 0.7853981633974516097 ) ;
#144 = VERTEX_POINT ( 'NONE', #101 ) ;
#145 = AXIS2_PLACEMENT_3D ( 'NONE', #41, #134, #93 ) ;
#146 = CALENDAR_DATE ( 2021, 26, 11 ) ;
#147 = CIRCLE ( 'NONE', #205, 2.983999999999999986 ) ;
#148 = EDGE_LOOP ( 'NONE', ( #14 ) ) ;
#149 = CARTESIAN_POINT ( 'NONE',  ( 4.290164829616173927E-14, -1.109780601965587314E-15, 12.28752043405643946 ) ) ;
#150 = DIRECTION ( 'NONE',  ( 3.153425691349006731E-31, 1.000000000000000000, 9.031770143711729009E-17 ) ) ;
#151 =( GEOMETRIC_REPRESENTATION_CONTEXT ( 3 ) GLOBAL_UNCERTAINTY_ASSIGNED_CONTEXT ( ( #183 ) ) GLOBAL_UNIT_ASSIGNED_CONTEXT ( ( #178, #177, #140 ) ) REPRESENTATION_CONTEXT ( 'NONE', 'WORKASPACE' ) );
#152 = DIRECTION ( 'NONE',  ( 3.491481338843133355E-15, 5.523978507951155422E-16, 1.000000000000000000 ) ) ;
#153 = FACE_OUTER_BOUND ( 'NONE', #58, .T. ) ;
#154 = PLANE ( 'NONE',  #225 ) ;
#155 = AXIS2_PLACEMENT_3D ( 'NONE', #136, #81, #19 ) ;
#156 = ADVANCED_FACE ( 'NONE', ( #3 ), #80, .T. ) ;
#157 = PERSON_AND_ORGANIZATION_ROLE ( 'creator' ) ;
#158 = DIRECTION ( 'NONE',  ( 0.0000000000000000000, 1.000000000000000000, 0.0000000000000000000 ) ) ;
#159 = APPLICATION_PROTOCOL_DEFINITION ( 'international standard', 'config_control_design', 1994, #70 ) ;
#160 = AXIS2_PLACEMENT_3D ( 'NONE', #149, #22, #170 ) ;
#161 = VERTEX_POINT ( 'NONE', #119 ) ;
#162 = CARTESIAN_POINT ( 'NONE',  ( 4.290164829616173927E-14, 2.983999999999998654, 12.28752043405643946 ) ) ;
#163 = APPROVAL_STATUS ( 'not_yet_approved' ) ;
#164 = ORIENTED_EDGE ( 'NONE', *, *, #235, .T. ) ;
#165 = CIRCLE ( 'NONE', #203, 2.983999999999998209 ) ;
#166 = APPROVAL_DATE_TIME ( #182, #175 ) ;
#167 = APPROVAL_DATE_TIME ( #57, #73 ) ;
#168 = CLOSED_SHELL ( 'NONE', ( #156, #212, #100, #65 ) ) ;
#169 = DIRECTION ( 'NONE',  ( -3.491481338843133355E-15, -5.523978507951155422E-16, -1.000000000000000000 ) ) ;
#170 = DIRECTION ( 'NONE',  ( 0.0000000000000000000, 1.000000000000000000, 0.0000000000000000000 ) ) ;
#171 = CARTESIAN_POINT ( 'NONE',  ( 5.309790239984821859E-30, 8.400780162016717583E-31, 1.520784367630092270E-15 ) ) ;
#172 = CONICAL_SURFACE ( 'NONE', #160, 2.983999999999999986, 0.5235987755982931535 ) ;
#173 = DIRECTION ( 'NONE',  ( 0.0000000000000000000, 1.000000000000000000, 0.0000000000000000000 ) ) ;
#174 = DIRECTION ( 'NONE',  ( -1.928686787668199294E-30, 1.000000000000000000, -5.523978507951155422E-16 ) ) ;
#175 = APPROVAL ( #50, 'UNSPECIFIED' ) ;
#176 = MECHANICAL_CONTEXT ( 'NONE', #56, 'mechanical' ) ;
#177 =( NAMED_UNIT ( * ) PLANE_ANGLE_UNIT ( ) SI_UNIT ( $, .RADIAN. ) );
#178 =( LENGTH_UNIT ( ) NAMED_UNIT ( * ) SI_UNIT ( .MILLI., .METRE. ) );
#179 = EDGE_LOOP ( 'NONE', ( #39 ) ) ;
#180 = EDGE_LOOP ( 'NONE', ( #105 ) ) ;
#181 = LOCAL_TIME ( 11, 4, 28.00000000000000000, #211 ) ;
#182 = DATE_AND_TIME ( #236, #23 ) ;
#183 = UNCERTAINTY_MEASURE_WITH_UNIT (LENGTH_MEASURE( 1.000000000000000082E-05 ), #178, 'distance_accuracy_value', 'NONE');
#184 = ORIENTED_EDGE ( 'NONE', *, *, #26, .T. ) ;
#185 = AXIS2_PLACEMENT_3D ( 'NONE', #115, #110, #47 ) ;
#186 = DIRECTION ( 'NONE',  ( -3.491481338843133355E-15, -5.523978507951155422E-16, -1.000000000000000000 ) ) ;
#187 = DIRECTION ( 'NONE',  ( -1.936256646501913901E-30, 1.000000000000000000, -5.450077944799791025E-16 ) ) ;
#188 = FACE_OUTER_BOUND ( 'NONE', #241, .T. ) ;
#189 = FACE_BOUND ( 'NONE', #242, .T. ) ;
#190 = CC_DESIGN_DATE_AND_TIME_ASSIGNMENT ( #239, #55, ( #48 ) ) ;
#191 = DIRECTION ( 'NONE',  ( -3.491481338843133355E-15, 9.031770143711729009E-17, -1.000000000000000000 ) ) ;
#192 = CARTESIAN_POINT ( 'NONE',  ( 0.0000000000000000000, 2.753059892324149160, 0.0000000000000000000 ) ) ;
#193 = ADVANCED_FACE ( 'NONE', ( #188 ), #62, .T. ) ;
#194 = VERTEX_POINT ( 'NONE', #122 ) ;
#195 = PERSON_AND_ORGANIZATION_ROLE ( 'design_owner' ) ;
#196 = EDGE_CURVE ( 'NONE', #7, #7, #165, .T. ) ;
#197 = ORIENTED_EDGE ( 'NONE', *, *, #127, .T. ) ;
#198 = ORIENTED_EDGE ( 'NONE', *, *, #44, .F. ) ;
#199 = DIRECTION ( 'NONE',  ( 0.0000000000000000000, 1.000000000000000000, 0.0000000000000000000 ) ) ;
#200 = DIRECTION ( 'NONE',  ( -3.153425691349006731E-31, -1.000000000000000000, -9.031770143711729009E-17 ) ) ;
#201 = FACE_BOUND ( 'NONE', #218, .T. ) ;
#202 = FACE_OUTER_BOUND ( 'NONE', #216, .T. ) ;
#203 = AXIS2_PLACEMENT_3D ( 'NONE', #229, #79, #187 ) ;
#204 = FACE_OUTER_BOUND ( 'NONE', #87, .T. ) ;
#205 = AXIS2_PLACEMENT_3D ( 'NONE', #113, #114, #173 ) ;
#206 = VERTEX_POINT ( 'NONE', #162 ) ;
#207 = DIRECTION ( 'NONE',  ( 0.0000000000000000000, 1.000000000000000000, 0.0000000000000000000 ) ) ;
#208 = AXIS2_PLACEMENT_3D ( 'NONE', #97, #25, #233 ) ;
#209 = APPROVAL ( #51, 'UNSPECIFIED' ) ;
#210 = CARTESIAN_POINT ( 'NONE',  ( 1.396592535537253342E-15, 2.983999999999998654, 0.4000000000000000222 ) ) ;
#211 = COORDINATED_UNIVERSAL_TIME_OFFSET ( 1, 0, .AHEAD. ) ;
#212 = ADVANCED_FACE ( 'NONE', ( #204, #202 ), #45, .T. ) ;
#213 = AXIS2_PLACEMENT_3D ( 'NONE', #21, #117, #4 ) ;
#214 = MANIFOLD_SOLID_BREP ( 'Corps-Déplacer/Copier1[2]', #168 ) ;
#215 = SHAPE_DEFINITION_REPRESENTATION ( #123, #91 ) ;
#216 = EDGE_LOOP ( 'NONE', ( #34 ) ) ;
#217 = PERSON_AND_ORGANIZATION ( #142, #106 ) ;
#218 = EDGE_LOOP ( 'NONE', ( #164 ) ) ;
#219 = PERSON_AND_ORGANIZATION_ROLE ( 'design_supplier' ) ;
#220 = AXIS2_PLACEMENT_3D ( 'NONE', #224, #138, #150 ) ;
#221 = PRODUCT ( '321500', '321500', '', ( #176 ) ) ;
#222 = ORIENTED_EDGE ( 'NONE', *, *, #196, .T. ) ;
#223 = ADVANCED_FACE ( 'NONE', ( #230 ), #154, .T. ) ;
#224 = CARTESIAN_POINT ( 'NONE',  ( 4.290164829616173927E-14, 2.983999999999998654, 12.28752043405643946 ) ) ;
#225 = AXIS2_PLACEMENT_3D ( 'NONE', #59, #66, #200 ) ;
#226 = APPROVAL_PERSON_ORGANIZATION ( #27, #209, #72 ) ;
#227 = FACE_OUTER_BOUND ( 'NONE', #9, .T. ) ;
#228 = FACE_OUTER_BOUND ( 'NONE', #109, .T. ) ;
#229 = CARTESIAN_POINT ( 'NONE',  ( 1.396592535537259061E-15, 2.209591403180471241E-16, 0.4000000000000016320 ) ) ;
#230 = FACE_OUTER_BOUND ( 'NONE', #11, .T. ) ;
#231 = DATE_AND_TIME ( #99, #71 ) ;
#232 = CC_DESIGN_PERSON_AND_ORGANIZATION_ASSIGNMENT ( #82, #157, ( #35 ) ) ;
#233 = DIRECTION ( 'NONE',  ( 1.000000000000000000, 0.0000000000000000000, 0.0000000000000000000 ) ) ;
#234 = CC_DESIGN_APPROVAL ( #73, ( #48 ) ) ;
#235 = EDGE_CURVE ( 'NONE', #144, #144, #121, .T. ) ;
#236 = CALENDAR_DATE ( 2021, 26, 11 ) ;
#237 = ORIENTED_EDGE ( 'NONE', *, *, #235, .F. ) ;
#238 = AXIS2_PLACEMENT_3D ( 'NONE', #2, #152, #77 ) ;
#239 = DATE_AND_TIME ( #126, #33 ) ;
#240 = COORDINATED_UNIVERSAL_TIME_OFFSET ( 1, 0, .AHEAD. ) ;
#241 = EDGE_LOOP ( 'NONE', ( #197 ) ) ;
#242 = EDGE_LOOP ( 'NONE', ( #198 ) ) ;
#243 = EDGE_CURVE ( 'NONE', #194, #194, #111, .T. ) ;
ENDSEC;
END-ISO-10303-21;
