ISO-10303-21;
HEADER;
FILE_DESCRIPTION (( 'STEP AP203' ),
    '1' );
FILE_NAME ('321499.step',
    '2021-11-26T10:04:27',
    ( '' ),
    ( '' ),
    'SwSTEP 2.0',
    'SolidWorks 2019',
    '' );
FILE_SCHEMA (( 'CONFIG_CONTROL_DESIGN' ));
ENDSEC;

DATA;
#1 = COORDINATED_UNIVERSAL_TIME_OFFSET ( 1, 0, .AHEAD. ) ;
#2 = FACE_OUTER_BOUND ( 'NONE', #103, .T. ) ;
#3 = VERTEX_POINT ( 'NONE', #140 ) ;
#4 = CC_DESIGN_APPROVAL ( #129, ( #214 ) ) ;
#5 = FACE_OUTER_BOUND ( 'NONE', #46, .T. ) ;
#6 = CC_DESIGN_DATE_AND_TIME_ASSIGNMENT ( #141, #197, ( #191 ) ) ;
#7 = PERSON_AND_ORGANIZATION ( #118, #196 ) ;
#8 = DIRECTION ( 'NONE',  ( -3.153425691349006731E-31, -1.000000000000000000, -9.031770143711729009E-17 ) ) ;
#9 = DIRECTION ( 'NONE',  ( -2.068806922470349884E-30, 1.000000000000000000, -5.823173803211856467E-16 ) ) ;
#10 = CIRCLE ( 'NONE', #15, 2.978999999999998316 ) ;
#11 = PRODUCT_RELATED_PRODUCT_CATEGORY ( 'detail', '', ( #109 ) ) ;
#12 = CARTESIAN_POINT ( 'NONE',  ( 0.0000000000000000000, 0.0000000000000000000, 0.0000000000000000000 ) ) ;
#13 = CARTESIAN_POINT ( 'NONE',  ( -2.647379370066844624E-30, 2.748059892324148823, -7.582395874823798512E-16 ) ) ;
#14 = APPROVAL ( #153, 'UNSPECIFIED' ) ;
#15 = AXIS2_PLACEMENT_3D ( 'NONE', #241, #200, #147 ) ;
#16 = COORDINATED_UNIVERSAL_TIME_OFFSET ( 1, 0, .AHEAD. ) ;
#17 = DATE_AND_TIME ( #189, #202 ) ;
#18 = PERSON_AND_ORGANIZATION ( #118, #196 ) ;
#19 = SHAPE_DEFINITION_REPRESENTATION ( #86, #30 ) ;
#20 = MANIFOLD_SOLID_BREP ( 'Corps-Déplacer/Copier1[2]', #187 ) ;
#21 = CC_DESIGN_DATE_AND_TIME_ASSIGNMENT ( #17, #50, ( #199 ) ) ;
#22 = AXIS2_PLACEMENT_3D ( 'NONE', #198, #236, #106 ) ;
#23 = COORDINATED_UNIVERSAL_TIME_OFFSET ( 1, 0, .AHEAD. ) ;
#24 = DIRECTION ( 'NONE',  ( 0.0000000000000000000, 1.000000000000000000, 0.0000000000000000000 ) ) ;
#25 = CARTESIAN_POINT ( 'NONE',  ( 4.293188541152452063E-14, 6.785478728896396413E-15, 12.29618068809428699 ) ) ;
#26 = CC_DESIGN_PERSON_AND_ORGANIZATION_ASSIGNMENT ( #121, #79, ( #109 ) ) ;
#27 = LOCAL_TIME ( 11, 4, 27.00000000000000000, #58 ) ;
#28 = CARTESIAN_POINT ( 'NONE',  ( 4.885231259955590439E-14, -1.263712492114123682E-15, 13.99185842870425134 ) ) ;
#29 = EDGE_LOOP ( 'NONE', ( #84 ) ) ;
#30 = ADVANCED_BREP_SHAPE_REPRESENTATION ( '321499', ( #108, #20, #49 ), #98 ) ;
#31 = DIRECTION ( 'NONE',  ( -3.491481338843133355E-15, 9.031770143711729009E-17, -1.000000000000000000 ) ) ;
#32 = PERSON_AND_ORGANIZATION_ROLE ( 'creator' ) ;
#33 = CARTESIAN_POINT ( 'NONE',  ( 4.293188541152450801E-14, 6.785478728896395624E-15, 12.29618068809428344 ) ) ;
#34 = AXIS2_PLACEMENT_3D ( 'NONE', #28, #120, #24 ) ;
#35 = PLANE ( 'NONE',  #65 ) ;
#36 = FACE_BOUND ( 'NONE', #222, .T. ) ;
#37 = DIRECTION ( 'NONE',  ( -1.926726107725290801E-30, 1.000000000000000000, -5.518362897404721450E-16 ) ) ;
#38 = DIRECTION ( 'NONE',  ( 3.153425691349006731E-31, 1.000000000000000000, 9.031770143711729009E-17 ) ) ;
#39 = PERSON_AND_ORGANIZATION ( #118, #196 ) ;
#40 = EDGE_LOOP ( 'NONE', ( #136 ) ) ;
#41 = AXIS2_PLACEMENT_3D ( 'NONE', #76, #213, #42 ) ;
#42 = DIRECTION ( 'NONE',  ( 0.0000000000000000000, 1.000000000000000000, 0.0000000000000000000 ) ) ;
#43 = VERTEX_POINT ( 'NONE', #122 ) ;
#44 =( NAMED_UNIT ( * ) SI_UNIT ( $, .STERADIAN. ) SOLID_ANGLE_UNIT ( ) );
#45 = EDGE_LOOP ( 'NONE', ( #87 ) ) ;
#46 = EDGE_LOOP ( 'NONE', ( #143 ) ) ;
#47 = APPROVAL_PERSON_ORGANIZATION ( #92, #129, #135 ) ;
#48 = PERSON_AND_ORGANIZATION ( #118, #196 ) ;
#49 = AXIS2_PLACEMENT_3D ( 'NONE', #138, #81, #96 ) ;
#50 = DATE_TIME_ROLE ( 'creation_date' ) ;
#51 = PLANE ( 'NONE',  #209 ) ;
#52 = PERSON_AND_ORGANIZATION_ROLE ( 'classification_officer' ) ;
#53 = APPROVAL_DATE_TIME ( #211, #129 ) ;
#54 = ORIENTED_EDGE ( 'NONE', *, *, #150, .F. ) ;
#55 = CIRCLE ( 'NONE', #110, 2.978999999999991655 ) ;
#56 = APPLICATION_CONTEXT ( 'configuration controlled 3d designs of mechanical parts and assemblies' ) ;
#57 =( NAMED_UNIT ( * ) PLANE_ANGLE_UNIT ( ) SI_UNIT ( $, .RADIAN. ) );
#58 = COORDINATED_UNIVERSAL_TIME_OFFSET ( 1, 0, .AHEAD. ) ;
#59 = ORIENTED_EDGE ( 'NONE', *, *, #219, .T. ) ;
#60 = AXIS2_PLACEMENT_3D ( 'NONE', #212, #174, #38 ) ;
#61 = ORIENTED_EDGE ( 'NONE', *, *, #194, .F. ) ;
#62 = CARTESIAN_POINT ( 'NONE',  ( 6.842277657836020854E-46, 2.748059892324148823, 0.0000000000000000000 ) ) ;
#63 = AXIS2_PLACEMENT_3D ( 'NONE', #116, #210, #192 ) ;
#64 = EDGE_CURVE ( 'NONE', #3, #3, #10, .T. ) ;
#65 = AXIS2_PLACEMENT_3D ( 'NONE', #33, #228, #149 ) ;
#66 = CARTESIAN_POINT ( 'NONE',  ( 2.793185071074506684E-13, 1.599999999999987876, 80.00000000000000000 ) ) ;
#67 = FACE_BOUND ( 'NONE', #148, .T. ) ;
#68 = ADVANCED_FACE ( 'NONE', ( #224, #107 ), #185, .T. ) ;
#69 = CONICAL_SURFACE ( 'NONE', #85, 2.748059892324148823, 0.5235987755982969283 ) ;
#70 = APPROVAL_STATUS ( 'not_yet_approved' ) ;
#71 = EDGE_CURVE ( 'NONE', #43, #43, #55, .T. ) ;
#72 =( LENGTH_UNIT ( ) NAMED_UNIT ( * ) SI_UNIT ( .MILLI., .METRE. ) );
#73 = AXIS2_PLACEMENT_3D ( 'NONE', #89, #126, #203 ) ;
#74 = DIRECTION ( 'NONE',  ( 0.0000000000000000000, 1.000000000000000000, 0.0000000000000000000 ) ) ;
#75 = DIRECTION ( 'NONE',  ( -3.491481338843133355E-15, -5.518362897404721450E-16, -1.000000000000000000 ) ) ;
#76 = CARTESIAN_POINT ( 'NONE',  ( 2.779219145719134403E-13, -7.189289034394536528E-15, 79.60000000000000853 ) ) ;
#77 = APPLICATION_PROTOCOL_DEFINITION ( 'international standard', 'config_control_design', 1994, #160 ) ;
#78 = FACE_OUTER_BOUND ( 'NONE', #99, .T. ) ;
#79 = PERSON_AND_ORGANIZATION_ROLE ( 'design_owner' ) ;
#80 = CC_DESIGN_SECURITY_CLASSIFICATION ( #191, ( #214 ) ) ;
#81 = DIRECTION ( 'NONE',  ( 0.0000000000000000000, 0.0000000000000000000, 1.000000000000000000 ) ) ;
#82 = FACE_OUTER_BOUND ( 'NONE', #221, .T. ) ;
#83 = ADVANCED_FACE ( 'NONE', ( #82 ), #35, .T. ) ;
#84 = ORIENTED_EDGE ( 'NONE', *, *, #173, .F. ) ;
#85 = AXIS2_PLACEMENT_3D ( 'NONE', #128, #243, #90 ) ;
#86 = PRODUCT_DEFINITION_SHAPE ( 'NONE', 'NONE',  #199 ) ;
#87 = ORIENTED_EDGE ( 'NONE', *, *, #173, .T. ) ;
#88 = APPROVAL_DATE_TIME ( #112, #14 ) ;
#89 = CARTESIAN_POINT ( 'NONE',  ( 4.293188541152451432E-14, -1.110562776204147201E-15, 12.29618068809428522 ) ) ;
#90 = DIRECTION ( 'NONE',  ( 1.926726107725290801E-30, -1.000000000000000000, 5.518362897404721450E-16 ) ) ;
#91 = CIRCLE ( 'NONE', #157, 2.748059892324148823 ) ;
#92 = PERSON_AND_ORGANIZATION ( #118, #196 ) ;
#93 = APPROVAL_PERSON_ORGANIZATION ( #39, #155, #151 ) ;
#94 = COORDINATED_UNIVERSAL_TIME_OFFSET ( 1, 0, .AHEAD. ) ;
#95 = CC_DESIGN_PERSON_AND_ORGANIZATION_ASSIGNMENT ( #232, #97, ( #214 ) ) ;
#96 = DIRECTION ( 'NONE',  ( 1.000000000000000000, 0.0000000000000000000, 0.0000000000000000000 ) ) ;
#97 = PERSON_AND_ORGANIZATION_ROLE ( 'creator' ) ;
#98 =( GEOMETRIC_REPRESENTATION_CONTEXT ( 3 ) GLOBAL_UNCERTAINTY_ASSIGNED_CONTEXT ( ( #123 ) ) GLOBAL_UNIT_ASSIGNED_CONTEXT ( ( #72, #57, #44 ) ) REPRESENTATION_CONTEXT ( 'NONE', 'WORKASPACE' ) );
#99 = EDGE_LOOP ( 'NONE', ( #233 ) ) ;
#100 = DATE_AND_TIME ( #139, #237 ) ;
#101 = DIRECTION ( 'NONE',  ( -3.491481338843133355E-15, 9.031770143711729009E-17, -1.000000000000000000 ) ) ;
#102 = ADVANCED_FACE ( 'NONE', ( #67, #113 ), #152, .T. ) ;
#103 = EDGE_LOOP ( 'NONE', ( #162 ) ) ;
#104 = LOCAL_TIME ( 11, 4, 27.00000000000000000, #94 ) ;
#105 = EDGE_LOOP ( 'NONE', ( #239 ) ) ;
#106 = DIRECTION ( 'NONE',  ( 0.0000000000000000000, 1.000000000000000000, 0.0000000000000000000 ) ) ;
#107 = FACE_OUTER_BOUND ( 'NONE', #40, .T. ) ;
#108 = MANIFOLD_SOLID_BREP ( 'Corps-Déplacer/Copier1[1]', #166 ) ;
#109 = PRODUCT ( '321499', '321499', '', ( #172 ) ) ;
#110 = AXIS2_PLACEMENT_3D ( 'NONE', #25, #178, #9 ) ;
#111 = ADVANCED_FACE ( 'NONE', ( #5 ), #51, .T. ) ;
#112 = DATE_AND_TIME ( #168, #119 ) ;
#113 = FACE_OUTER_BOUND ( 'NONE', #29, .T. ) ;
#114 = CARTESIAN_POINT ( 'NONE',  ( 4.885231259955590439E-14, 1.999999999999990452, 13.99185842870425134 ) ) ;
#115 = FACE_OUTER_BOUND ( 'NONE', #223, .T. ) ;
#116 = CARTESIAN_POINT ( 'NONE',  ( 0.0000000000000000000, 0.0000000000000000000, 0.0000000000000000000 ) ) ;
#117 = APPROVAL_STATUS ( 'not_yet_approved' ) ;
#118 = PERSON ( 'UNSPECIFIED', 'UNSPECIFIED', 'UNSPECIFIED', ('UNSPECIFIED'), ('UNSPECIFIED'), ('UNSPECIFIED') ) ;
#119 = LOCAL_TIME ( 11, 4, 27.00000000000000000, #1 ) ;
#120 = DIRECTION ( 'NONE',  ( -3.491481338843133355E-15, 9.031770143711729009E-17, -1.000000000000000000 ) ) ;
#121 = PERSON_AND_ORGANIZATION ( #118, #196 ) ;
#122 = CARTESIAN_POINT ( 'NONE',  ( 4.293188541152451432E-14, 2.978999999999998760, 12.29618068809428522 ) ) ;
#123 = UNCERTAINTY_MEASURE_WITH_UNIT (LENGTH_MEASURE( 1.000000000000000082E-05 ), #72, 'distance_accuracy_value', 'NONE');
#124 = ADVANCED_FACE ( 'NONE', ( #2, #36 ), #69, .T. ) ;
#125 = CIRCLE ( 'NONE', #34, 1.999999999999991784 ) ;
#126 = DIRECTION ( 'NONE',  ( -3.491481338843133355E-15, 9.031770143711729009E-17, -1.000000000000000000 ) ) ;
#127 = CC_DESIGN_APPROVAL ( #155, ( #191 ) ) ;
#128 = CARTESIAN_POINT ( 'NONE',  ( 5.294758740133689247E-30, 8.368482413812452780E-31, 1.516479174964759702E-15 ) ) ;
#129 = APPROVAL ( #70, 'UNSPECIFIED' ) ;
#130 = VERTEX_POINT ( 'NONE', #114 ) ;
#131 = ADVANCED_FACE ( 'NONE', ( #115 ), #167, .T. ) ;
#132 = VERTEX_POINT ( 'NONE', #208 ) ;
#133 = CALENDAR_DATE ( 2021, 26, 11 ) ;
#134 = AXIS2_PLACEMENT_3D ( 'NONE', #169, #31, #225 ) ;
#135 = APPROVAL_ROLE ( '' ) ;
#136 = ORIENTED_EDGE ( 'NONE', *, *, #219, .F. ) ;
#137 = PLANE ( 'NONE',  #60 ) ;
#138 = CARTESIAN_POINT ( 'NONE',  ( 0.0000000000000000000, 0.0000000000000000000, 0.0000000000000000000 ) ) ;
#139 = CALENDAR_DATE ( 2021, 26, 11 ) ;
#140 = CARTESIAN_POINT ( 'NONE',  ( 1.396592535537253342E-15, 2.978999999999998760, 0.4000000000000000222 ) ) ;
#141 = DATE_AND_TIME ( #133, #27 ) ;
#142 = APPROVAL_PERSON_ORGANIZATION ( #7, #14, #205 ) ;
#143 = ORIENTED_EDGE ( 'NONE', *, *, #150, .T. ) ;
#144 = DESIGN_CONTEXT ( 'detailed design', #56, 'design' ) ;
#145 = CIRCLE ( 'NONE', #22, 1.599999999999994982 ) ;
#146 = CC_DESIGN_PERSON_AND_ORGANIZATION_ASSIGNMENT ( #48, #32, ( #199 ) ) ;
#147 = DIRECTION ( 'NONE',  ( -1.939506489815948660E-30, 1.000000000000000000, -5.459225440511103174E-16 ) ) ;
#148 = EDGE_LOOP ( 'NONE', ( #159 ) ) ;
#149 = DIRECTION ( 'NONE',  ( 1.926726107725290801E-30, -1.000000000000000000, 5.518362897404721450E-16 ) ) ;
#150 = EDGE_CURVE ( 'NONE', #177, #177, #91, .T. ) ;
#151 = APPROVAL_ROLE ( '' ) ;
#152 = CONICAL_SURFACE ( 'NONE', #134, 1.999999999999995337, 0.7853981633974516097 ) ;
#153 = APPROVAL_STATUS ( 'not_yet_approved' ) ;
#154 = CALENDAR_DATE ( 2021, 26, 11 ) ;
#155 = APPROVAL ( #117, 'UNSPECIFIED' ) ;
#156 = APPLICATION_PROTOCOL_DEFINITION ( 'international standard', 'config_control_design', 1994, #56 ) ;
#157 = AXIS2_PLACEMENT_3D ( 'NONE', #230, #75, #37 ) ;
#158 = DIRECTION ( 'NONE',  ( 3.153425691349006731E-31, 1.000000000000000000, 9.031770143711729009E-17 ) ) ;
#159 = ORIENTED_EDGE ( 'NONE', *, *, #194, .T. ) ;
#160 = APPLICATION_CONTEXT ( 'configuration controlled 3d designs of mechanical parts and assemblies' ) ;
#161 = EDGE_LOOP ( 'NONE', ( #204 ) ) ;
#162 = ORIENTED_EDGE ( 'NONE', *, *, #64, .T. ) ;
#163 = CARTESIAN_POINT ( 'NONE',  ( 2.779219145719134403E-13, 1.999999999999988010, 79.60000000000000853 ) ) ;
#164 = FACE_BOUND ( 'NONE', #201, .T. ) ;
#165 = DIRECTION ( 'NONE',  ( -1.926726107725290801E-30, 1.000000000000000000, -5.518362897404721450E-16 ) ) ;
#166 = CLOSED_SHELL ( 'NONE', ( #131, #102, #68, #215, #234 ) ) ;
#167 = PLANE ( 'NONE',  #170 ) ;
#168 = CALENDAR_DATE ( 2021, 26, 11 ) ;
#169 = CARTESIAN_POINT ( 'NONE',  ( 2.779219145719134403E-13, -7.189289034394536528E-15, 79.60000000000000853 ) ) ;
#170 = AXIS2_PLACEMENT_3D ( 'NONE', #195, #216, #8 ) ;
#171 = APPROVAL_DATE_TIME ( #100, #155 ) ;
#172 = MECHANICAL_CONTEXT ( 'NONE', #160, 'mechanical' ) ;
#173 = EDGE_CURVE ( 'NONE', #183, #183, #231, .T. ) ;
#174 = DIRECTION ( 'NONE',  ( -3.491481338843133355E-15, 9.031770143711729009E-17, -1.000000000000000000 ) ) ;
#175 = PERSON_AND_ORGANIZATION_ROLE ( 'design_supplier' ) ;
#176 = FACE_OUTER_BOUND ( 'NONE', #105, .T. ) ;
#177 = VERTEX_POINT ( 'NONE', #62 ) ;
#178 = DIRECTION ( 'NONE',  ( -3.491481338843133355E-15, -5.518362897404721450E-16, -1.000000000000000000 ) ) ;
#179 = EDGE_LOOP ( 'NONE', ( #181 ) ) ;
#180 = CC_DESIGN_PERSON_AND_ORGANIZATION_ASSIGNMENT ( #235, #52, ( #191 ) ) ;
#181 = ORIENTED_EDGE ( 'NONE', *, *, #242, .F. ) ;
#182 = CC_DESIGN_APPROVAL ( #14, ( #199 ) ) ;
#183 = VERTEX_POINT ( 'NONE', #163 ) ;
#184 = FACE_OUTER_BOUND ( 'NONE', #179, .T. ) ;
#185 = CYLINDRICAL_SURFACE ( 'NONE', #220, 1.999999999999993561 ) ;
#186 = VERTEX_POINT ( 'NONE', #66 ) ;
#187 = CLOSED_SHELL ( 'NONE', ( #83, #238, #124, #111 ) ) ;
#188 = CONICAL_SURFACE ( 'NONE', #73, 2.979000000000000092, 0.5235987755982931535 ) ;
#189 = CALENDAR_DATE ( 2021, 26, 11 ) ;
#190 = DIRECTION ( 'NONE',  ( -3.491481338843133355E-15, 9.031770143711729009E-17, -1.000000000000000000 ) ) ;
#191 = SECURITY_CLASSIFICATION ( '', '', #229 ) ;
#192 = DIRECTION ( 'NONE',  ( -1.926726107725290801E-30, 1.000000000000000000, -5.518362897404721450E-16 ) ) ;
#193 = FACE_OUTER_BOUND ( 'NONE', #161, .T. ) ;
#194 = EDGE_CURVE ( 'NONE', #186, #186, #145, .T. ) ;
#195 = CARTESIAN_POINT ( 'NONE',  ( 2.793185071074506684E-13, -7.225416114969383207E-15, 80.00000000000000000 ) ) ;
#196 = ORGANIZATION ( 'UNSPECIFIED', 'UNSPECIFIED', '' ) ;
#197 = DATE_TIME_ROLE ( 'classification_date' ) ;
#198 = CARTESIAN_POINT ( 'NONE',  ( 2.793185071074506684E-13, -7.225416114969383207E-15, 80.00000000000000000 ) ) ;
#199 = PRODUCT_DEFINITION ( 'UNKNOWN', '', #214, #144 ) ;
#200 = DIRECTION ( 'NONE',  ( -3.491481338843133355E-15, -5.518362897404721450E-16, -1.000000000000000000 ) ) ;
#201 = EDGE_LOOP ( 'NONE', ( #59 ) ) ;
#202 = LOCAL_TIME ( 11, 4, 27.00000000000000000, #16 ) ;
#203 = DIRECTION ( 'NONE',  ( 0.0000000000000000000, 1.000000000000000000, 0.0000000000000000000 ) ) ;
#204 = ORIENTED_EDGE ( 'NONE', *, *, #71, .T. ) ;
#205 = APPROVAL_ROLE ( '' ) ;
#206 = CARTESIAN_POINT ( 'NONE',  ( 4.293188541152451432E-14, -1.110562776204147201E-15, 12.29618068809428522 ) ) ;
#207 = DIRECTION ( 'NONE',  ( -3.491481338843133355E-15, -5.518362897404721450E-16, -1.000000000000000000 ) ) ;
#208 = CARTESIAN_POINT ( 'NONE',  ( 4.293188541152451432E-14, 2.978999999999998760, 12.29618068809428522 ) ) ;
#209 = AXIS2_PLACEMENT_3D ( 'NONE', #13, #207, #165 ) ;
#210 = DIRECTION ( 'NONE',  ( -3.491481338843133355E-15, -5.518362897404721450E-16, -1.000000000000000000 ) ) ;
#211 = DATE_AND_TIME ( #154, #104 ) ;
#212 = CARTESIAN_POINT ( 'NONE',  ( 4.293188541152450801E-14, 2.978999999999998760, 12.29618068809428344 ) ) ;
#213 = DIRECTION ( 'NONE',  ( -3.491481338843133355E-15, 9.031770143711729009E-17, -1.000000000000000000 ) ) ;
#214 = PRODUCT_DEFINITION_FORMATION_WITH_SPECIFIED_SOURCE ( 'ANY', '', #109, .NOT_KNOWN. ) ;
#215 = ADVANCED_FACE ( 'NONE', ( #164, #184 ), #188, .T. ) ;
#216 = DIRECTION ( 'NONE',  ( 3.491481338843133355E-15, -9.031770143711729009E-17, 1.000000000000000000 ) ) ;
#217 = CYLINDRICAL_SURFACE ( 'NONE', #63, 2.978999999999994763 ) ;
#218 = ORIENTED_EDGE ( 'NONE', *, *, #71, .F. ) ;
#219 = EDGE_CURVE ( 'NONE', #130, #130, #125, .T. ) ;
#220 = AXIS2_PLACEMENT_3D ( 'NONE', #12, #101, #158 ) ;
#221 = EDGE_LOOP ( 'NONE', ( #218 ) ) ;
#222 = EDGE_LOOP ( 'NONE', ( #54 ) ) ;
#223 = EDGE_LOOP ( 'NONE', ( #61 ) ) ;
#224 = FACE_OUTER_BOUND ( 'NONE', #45, .T. ) ;
#225 = DIRECTION ( 'NONE',  ( 0.0000000000000000000, 1.000000000000000000, 0.0000000000000000000 ) ) ;
#226 = CC_DESIGN_PERSON_AND_ORGANIZATION_ASSIGNMENT ( #18, #175, ( #214 ) ) ;
#227 = AXIS2_PLACEMENT_3D ( 'NONE', #206, #190, #74 ) ;
#228 = DIRECTION ( 'NONE',  ( 3.491481338843133355E-15, 5.518362897404721450E-16, 1.000000000000000000 ) ) ;
#229 = SECURITY_CLASSIFICATION_LEVEL ( 'unclassified' ) ;
#230 = CARTESIAN_POINT ( 'NONE',  ( 5.294758740133689247E-30, 8.368482413812452780E-31, 1.516479174964759702E-15 ) ) ;
#231 = CIRCLE ( 'NONE', #41, 1.999999999999995337 ) ;
#232 = PERSON_AND_ORGANIZATION ( #118, #196 ) ;
#233 = ORIENTED_EDGE ( 'NONE', *, *, #64, .F. ) ;
#234 = ADVANCED_FACE ( 'NONE', ( #176 ), #137, .T. ) ;
#235 = PERSON_AND_ORGANIZATION ( #118, #196 ) ;
#236 = DIRECTION ( 'NONE',  ( -3.491481338843133355E-15, 9.031770143711729009E-17, -1.000000000000000000 ) ) ;
#237 = LOCAL_TIME ( 11, 4, 27.00000000000000000, #23 ) ;
#238 = ADVANCED_FACE ( 'NONE', ( #193, #78 ), #217, .T. ) ;
#239 = ORIENTED_EDGE ( 'NONE', *, *, #242, .T. ) ;
#240 = CIRCLE ( 'NONE', #227, 2.979000000000000092 ) ;
#241 = CARTESIAN_POINT ( 'NONE',  ( 1.396592535537259061E-15, 2.207345158961897356E-16, 0.4000000000000016320 ) ) ;
#242 = EDGE_CURVE ( 'NONE', #132, #132, #240, .T. ) ;
#243 = DIRECTION ( 'NONE',  ( 3.491481338843133355E-15, 5.518362897404721450E-16, 1.000000000000000000 ) ) ;
ENDSEC;
END-ISO-10303-21;
