ISO-10303-21;
HEADER;
FILE_DESCRIPTION (( 'STEP AP203' ),
    '1' );
FILE_NAME ('321498.step',
    '2021-11-26T10:04:27',
    ( '' ),
    ( '' ),
    'SwSTEP 2.0',
    'SolidWorks 2019',
    '' );
FILE_SCHEMA (( 'CONFIG_CONTROL_DESIGN' ));
ENDSEC;

DATA;
#1 = AXIS2_PLACEMENT_3D ( 'NONE', #155, #241, #225 ) ;
#2 = PRODUCT_DEFINITION_FORMATION_WITH_SPECIFIED_SOURCE ( 'ANY', '', #29, .NOT_KNOWN. ) ;
#3 = PERSON_AND_ORGANIZATION ( #118, #75 ) ;
#4 = ORIENTED_EDGE ( 'NONE', *, *, #194, .F. ) ;
#5 = CALENDAR_DATE ( 2021, 26, 11 ) ;
#6 = CC_DESIGN_PERSON_AND_ORGANIZATION_ASSIGNMENT ( #164, #69, ( #126 ) ) ;
#7 = PERSON_AND_ORGANIZATION ( #118, #75 ) ;
#8 = APPROVAL_DATE_TIME ( #187, #119 ) ;
#9 = DIRECTION ( 'NONE',  ( -1.924768187669561759E-30, 1.000000000000000000, -5.512755191489335415E-16 ) ) ;
#10 = APPLICATION_CONTEXT ( 'configuration controlled 3d designs of mechanical parts and assemblies' ) ;
#11 = APPLICATION_PROTOCOL_DEFINITION ( 'international standard', 'config_control_design', 1994, #55 ) ;
#12 = EDGE_LOOP ( 'NONE', ( #160 ) ) ;
#13 = VERTEX_POINT ( 'NONE', #39 ) ;
#14 = CONICAL_SURFACE ( 'NONE', #120, 2.974000000000000199, 0.5235987755982934866 ) ;
#15 = DIRECTION ( 'NONE',  ( 0.0000000000000000000, 0.0000000000000000000, 1.000000000000000000 ) ) ;
#16 = CIRCLE ( 'NONE', #83, 2.973999999999998423 ) ;
#17 = APPROVAL_PERSON_ORGANIZATION ( #129, #178, #214 ) ;
#18 = ADVANCED_FACE ( 'NONE', ( #157, #191 ), #14, .T. ) ;
#19 = CC_DESIGN_PERSON_AND_ORGANIZATION_ASSIGNMENT ( #231, #232, ( #84 ) ) ;
#20 = ORIENTED_EDGE ( 'NONE', *, *, #112, .F. ) ;
#21 = ADVANCED_FACE ( 'NONE', ( #132 ), #27, .T. ) ;
#22 = DATE_TIME_ROLE ( 'creation_date' ) ;
#23 = DATE_AND_TIME ( #52, #167 ) ;
#24 = CARTESIAN_POINT ( 'NONE',  ( 4.296212252688729567E-14, 2.973999999999998867, 12.30484094213213098 ) ) ;
#25 = FACE_OUTER_BOUND ( 'NONE', #121, .T. ) ;
#26 = PLANE ( 'NONE',  #125 ) ;
#27 = PLANE ( 'NONE',  #196 ) ;
#28 = FACE_OUTER_BOUND ( 'NONE', #12, .T. ) ;
#29 = PRODUCT ( '321498', '321498', '', ( #33 ) ) ;
#30 = AXIS2_PLACEMENT_3D ( 'NONE', #192, #74, #9 ) ;
#31 = ORIENTED_EDGE ( 'NONE', *, *, #58, .F. ) ;
#32 = PERSON_AND_ORGANIZATION ( #118, #75 ) ;
#33 = MECHANICAL_CONTEXT ( 'NONE', #55, 'mechanical' ) ;
#34 = PERSON_AND_ORGANIZATION ( #118, #75 ) ;
#35 = EDGE_LOOP ( 'NONE', ( #37 ) ) ;
#36 = CC_DESIGN_SECURITY_CLASSIFICATION ( #84, ( #2 ) ) ;
#37 = ORIENTED_EDGE ( 'NONE', *, *, #200, .T. ) ;
#38 = DIRECTION ( 'NONE',  ( 3.491481338843133355E-15, 5.512755191489335415E-16, 1.000000000000000000 ) ) ;
#39 = CARTESIAN_POINT ( 'NONE',  ( 1.396592535537253342E-15, 2.973999999999998867, 0.4000000000000000222 ) ) ;
#40 = APPROVAL ( #105, 'UNSPECIFIED' ) ;
#41 = ORIENTED_EDGE ( 'NONE', *, *, #137, .F. ) ;
#42 = DIRECTION ( 'NONE',  ( 3.491481338843133355E-15, -9.031770143711729009E-17, 1.000000000000000000 ) ) ;
#43 = DIRECTION ( 'NONE',  ( -3.491481338843133355E-15, -5.512755191489335415E-16, -1.000000000000000000 ) ) ;
#44 = DIRECTION ( 'NONE',  ( -1.942767260646170487E-30, 1.000000000000000000, -5.468403694446057926E-16 ) ) ;
#45 = AXIS2_PLACEMENT_3D ( 'NONE', #117, #63, #134 ) ;
#46 = APPROVAL_PERSON_ORGANIZATION ( #34, #119, #107 ) ;
#47 = UNCERTAINTY_MEASURE_WITH_UNIT (LENGTH_MEASURE( 1.000000000000000082E-05 ), #165, 'distance_accuracy_value', 'NONE');
#48 = DIRECTION ( 'NONE',  ( 1.000000000000000000, 0.0000000000000000000, 0.0000000000000000000 ) ) ;
#49 = CC_DESIGN_PERSON_AND_ORGANIZATION_ASSIGNMENT ( #7, #146, ( #2 ) ) ;
#50 = ADVANCED_FACE ( 'NONE', ( #81, #223 ), #110, .T. ) ;
#51 = DATE_TIME_ROLE ( 'classification_date' ) ;
#52 = CALENDAR_DATE ( 2021, 26, 11 ) ;
#53 = PERSON_AND_ORGANIZATION ( #118, #75 ) ;
#54 = DATE_AND_TIME ( #67, #181 ) ;
#55 = APPLICATION_CONTEXT ( 'configuration controlled 3d designs of mechanical parts and assemblies' ) ;
#56 = CIRCLE ( 'NONE', #45, 1.999999999999995337 ) ;
#57 = DIRECTION ( 'NONE',  ( -2.072285078022586407E-30, 1.000000000000000000, -5.832963940742474607E-16 ) ) ;
#58 = EDGE_CURVE ( 'NONE', #88, #88, #188, .T. ) ;
#59 = DIRECTION ( 'NONE',  ( 0.0000000000000000000, 1.000000000000000000, 0.0000000000000000000 ) ) ;
#60 = CIRCLE ( 'NONE', #202, 1.999999999999991784 ) ;
#61 = AXIS2_PLACEMENT_3D ( 'NONE', #179, #128, #106 ) ;
#62 = FACE_OUTER_BOUND ( 'NONE', #78, .T. ) ;
#63 = DIRECTION ( 'NONE',  ( -3.491481338843133355E-15, 9.031770143711729009E-17, -1.000000000000000000 ) ) ;
#64 = LOCAL_TIME ( 11, 4, 27.00000000000000000, #104 ) ;
#65 = AXIS2_PLACEMENT_3D ( 'NONE', #136, #85, #57 ) ;
#66 = DIRECTION ( 'NONE',  ( 0.0000000000000000000, 1.000000000000000000, 0.0000000000000000000 ) ) ;
#67 = CALENDAR_DATE ( 2021, 26, 11 ) ;
#68 = SECURITY_CLASSIFICATION_LEVEL ( 'unclassified' ) ;
#69 = PERSON_AND_ORGANIZATION_ROLE ( 'creator' ) ;
#70 = AXIS2_PLACEMENT_3D ( 'NONE', #175, #226, #102 ) ;
#71 = COORDINATED_UNIVERSAL_TIME_OFFSET ( 1, 0, .AHEAD. ) ;
#72 = SHAPE_DEFINITION_REPRESENTATION ( #208, #77 ) ;
#73 = CARTESIAN_POINT ( 'NONE',  ( 2.793185071074506684E-13, 1.599999999999987876, 80.00000000000000000 ) ) ;
#74 = DIRECTION ( 'NONE',  ( -3.491481338843133355E-15, -5.512755191489335415E-16, -1.000000000000000000 ) ) ;
#75 = ORGANIZATION ( 'UNSPECIFIED', 'UNSPECIFIED', '' ) ;
#76 = DIRECTION ( 'NONE',  ( 3.153425691349006731E-31, 1.000000000000000000, 9.031770143711729009E-17 ) ) ;
#77 = ADVANCED_BREP_SHAPE_REPRESENTATION ( '321498', ( #210, #123, #240 ), #138 ) ;
#78 = EDGE_LOOP ( 'NONE', ( #233 ) ) ;
#79 = EDGE_LOOP ( 'NONE', ( #89 ) ) ;
#80 = FACE_OUTER_BOUND ( 'NONE', #108, .T. ) ;
#81 = FACE_OUTER_BOUND ( 'NONE', #237, .T. ) ;
#82 = DIRECTION ( 'NONE',  ( 3.491481338843133355E-15, 5.512755191489335415E-16, 1.000000000000000000 ) ) ;
#83 = AXIS2_PLACEMENT_3D ( 'NONE', #130, #213, #44 ) ;
#84 = SECURITY_CLASSIFICATION ( '', '', #68 ) ;
#85 = DIRECTION ( 'NONE',  ( -3.491481338843133355E-15, -5.512755191489335415E-16, -1.000000000000000000 ) ) ;
#86 = FACE_OUTER_BOUND ( 'NONE', #143, .T. ) ;
#87 = AXIS2_PLACEMENT_3D ( 'NONE', #176, #156, #66 ) ;
#88 = VERTEX_POINT ( 'NONE', #141 ) ;
#89 = ORIENTED_EDGE ( 'NONE', *, *, #200, .F. ) ;
#90 = APPLICATION_PROTOCOL_DEFINITION ( 'international standard', 'config_control_design', 1994, #10 ) ;
#91 = ORIENTED_EDGE ( 'NONE', *, *, #194, .T. ) ;
#92 = CLOSED_SHELL ( 'NONE', ( #219, #186, #50, #18, #227 ) ) ;
#93 = VERTEX_POINT ( 'NONE', #114 ) ;
#94 = DIRECTION ( 'NONE',  ( 1.924768187669562109E-30, -1.000000000000000000, 5.512755191489335415E-16 ) ) ;
#95 = DIRECTION ( 'NONE',  ( 0.0000000000000000000, 1.000000000000000000, 0.0000000000000000000 ) ) ;
#96 = CC_DESIGN_APPROVAL ( #178, ( #2 ) ) ;
#97 = CARTESIAN_POINT ( 'NONE',  ( 2.793185071074506684E-13, -7.225416114969383207E-15, 80.00000000000000000 ) ) ;
#98 = EDGE_CURVE ( 'NONE', #205, #205, #56, .T. ) ;
#99 = AXIS2_PLACEMENT_3D ( 'NONE', #133, #82, #94 ) ;
#100 = PLANE ( 'NONE',  #70 ) ;
#101 = CIRCLE ( 'NONE', #87, 2.974000000000000199 ) ;
#102 = DIRECTION ( 'NONE',  ( -1.924768187669561759E-30, 1.000000000000000000, -5.512755191489335415E-16 ) ) ;
#103 = EDGE_LOOP ( 'NONE', ( #41 ) ) ;
#104 = COORDINATED_UNIVERSAL_TIME_OFFSET ( 1, 0, .AHEAD. ) ;
#105 = APPROVAL_STATUS ( 'not_yet_approved' ) ;
#106 = DIRECTION ( 'NONE',  ( 0.0000000000000000000, 1.000000000000000000, 0.0000000000000000000 ) ) ;
#107 = APPROVAL_ROLE ( '' ) ;
#108 = EDGE_LOOP ( 'NONE', ( #212 ) ) ;
#109 = CC_DESIGN_DATE_AND_TIME_ASSIGNMENT ( #23, #22, ( #126 ) ) ;
#110 = CYLINDRICAL_SURFACE ( 'NONE', #149, 1.999999999999993561 ) ;
#111 = CC_DESIGN_APPROVAL ( #40, ( #126 ) ) ;
#112 = EDGE_CURVE ( 'NONE', #93, #93, #101, .T. ) ;
#113 =( NAMED_UNIT ( * ) PLANE_ANGLE_UNIT ( ) SI_UNIT ( $, .RADIAN. ) );
#114 = CARTESIAN_POINT ( 'NONE',  ( 4.296212252688729567E-14, 2.973999999999998867, 12.30484094213213098 ) ) ;
#115 = DIRECTION ( 'NONE',  ( -3.491481338843133355E-15, 9.031770143711729009E-17, -1.000000000000000000 ) ) ;
#116 = DIRECTION ( 'NONE',  ( -3.153425691349006731E-31, -1.000000000000000000, -9.031770143711729009E-17 ) ) ;
#117 = CARTESIAN_POINT ( 'NONE',  ( 2.779219145719134403E-13, -7.189289034394536528E-15, 79.60000000000000853 ) ) ;
#118 = PERSON ( 'UNSPECIFIED', 'UNSPECIFIED', 'UNSPECIFIED', ('UNSPECIFIED'), ('UNSPECIFIED'), ('UNSPECIFIED') ) ;
#119 = APPROVAL ( #124, 'UNSPECIFIED' ) ;
#120 = AXIS2_PLACEMENT_3D ( 'NONE', #215, #115, #170 ) ;
#121 = EDGE_LOOP ( 'NONE', ( #198 ) ) ;
#122 = EDGE_LOOP ( 'NONE', ( #4 ) ) ;
#123 = MANIFOLD_SOLID_BREP ( 'Corps-Déplacer/Copier1[2]', #238 ) ;
#124 = APPROVAL_STATUS ( 'not_yet_approved' ) ;
#125 = AXIS2_PLACEMENT_3D ( 'NONE', #97, #42, #116 ) ;
#126 = PRODUCT_DEFINITION ( 'UNKNOWN', '', #2, #201 ) ;
#127 = DATE_AND_TIME ( #5, #224 ) ;
#128 = DIRECTION ( 'NONE',  ( -3.491481338843133355E-15, 9.031770143711729009E-17, -1.000000000000000000 ) ) ;
#129 = PERSON_AND_ORGANIZATION ( #118, #75 ) ;
#130 = CARTESIAN_POINT ( 'NONE',  ( 1.396592535537259061E-15, 2.205102076595743287E-16, 0.4000000000000016320 ) ) ;
#131 = CALENDAR_DATE ( 2021, 26, 11 ) ;
#132 = FACE_OUTER_BOUND ( 'NONE', #79, .T. ) ;
#133 = CARTESIAN_POINT ( 'NONE',  ( 5.279754417617816123E-30, 8.336287882081402727E-31, 1.512181766197613057E-15 ) ) ;
#134 = DIRECTION ( 'NONE',  ( 0.0000000000000000000, 1.000000000000000000, 0.0000000000000000000 ) ) ;
#135 = CONICAL_SURFACE ( 'NONE', #152, 1.999999999999995337, 0.7853981633974516097 ) ;
#136 = CARTESIAN_POINT ( 'NONE',  ( 4.296212252688730198E-14, 6.783357578418943169E-15, 12.30484094213213275 ) ) ;
#137 = EDGE_CURVE ( 'NONE', #221, #221, #230, .T. ) ;
#138 =( GEOMETRIC_REPRESENTATION_CONTEXT ( 3 ) GLOBAL_UNCERTAINTY_ASSIGNED_CONTEXT ( ( #47 ) ) GLOBAL_UNIT_ASSIGNED_CONTEXT ( ( #165, #113, #216 ) ) REPRESENTATION_CONTEXT ( 'NONE', 'WORKASPACE' ) );
#139 = EDGE_CURVE ( 'NONE', #13, #13, #16, .T. ) ;
#140 = PRODUCT_RELATED_PRODUCT_CATEGORY ( 'detail', '', ( #29 ) ) ;
#141 = CARTESIAN_POINT ( 'NONE',  ( 6.842277657836020854E-46, 2.743059892324148930, 0.0000000000000000000 ) ) ;
#142 = CIRCLE ( 'NONE', #65, 2.973999999999991761 ) ;
#143 = EDGE_LOOP ( 'NONE', ( #158 ) ) ;
#144 = PERSON_AND_ORGANIZATION_ROLE ( 'design_owner' ) ;
#145 = COORDINATED_UNIVERSAL_TIME_OFFSET ( 1, 0, .AHEAD. ) ;
#146 = PERSON_AND_ORGANIZATION_ROLE ( 'creator' ) ;
#147 = CC_DESIGN_PERSON_AND_ORGANIZATION_ASSIGNMENT ( #53, #144, ( #29 ) ) ;
#148 = CARTESIAN_POINT ( 'NONE',  ( 2.779219145719134403E-13, 1.999999999999988010, 79.60000000000000853 ) ) ;
#149 = AXIS2_PLACEMENT_3D ( 'NONE', #190, #183, #76 ) ;
#150 = DIRECTION ( 'NONE',  ( -3.491481338843133355E-15, 9.031770143711729009E-17, -1.000000000000000000 ) ) ;
#151 = FACE_OUTER_BOUND ( 'NONE', #35, .T. ) ;
#152 = AXIS2_PLACEMENT_3D ( 'NONE', #153, #172, #59 ) ;
#153 = CARTESIAN_POINT ( 'NONE',  ( 2.779219145719134403E-13, -7.189289034394536528E-15, 79.60000000000000853 ) ) ;
#154 = ADVANCED_FACE ( 'NONE', ( #151, #62 ), #168, .T. ) ;
#155 = CARTESIAN_POINT ( 'NONE',  ( 4.296212252688730198E-14, 2.973999999999998867, 12.30484094213213275 ) ) ;
#156 = DIRECTION ( 'NONE',  ( -3.491481338843133355E-15, 9.031770143711729009E-17, -1.000000000000000000 ) ) ;
#157 = FACE_BOUND ( 'NONE', #220, .T. ) ;
#158 = ORIENTED_EDGE ( 'NONE', *, *, #58, .T. ) ;
#159 = COORDINATED_UNIVERSAL_TIME_OFFSET ( 1, 0, .AHEAD. ) ;
#160 = ORIENTED_EDGE ( 'NONE', *, *, #112, .T. ) ;
#161 = CC_DESIGN_DATE_AND_TIME_ASSIGNMENT ( #211, #51, ( #84 ) ) ;
#162 = APPROVAL_DATE_TIME ( #127, #178 ) ;
#163 = AXIS2_PLACEMENT_3D ( 'NONE', #209, #43, #173 ) ;
#164 = PERSON_AND_ORGANIZATION ( #118, #75 ) ;
#165 =( LENGTH_UNIT ( ) NAMED_UNIT ( * ) SI_UNIT ( .MILLI., .METRE. ) );
#166 = CARTESIAN_POINT ( 'NONE',  ( 4.885231259955590439E-14, -1.263712492114123682E-15, 13.99185842870425134 ) ) ;
#167 = LOCAL_TIME ( 11, 4, 27.00000000000000000, #145 ) ;
#168 = CYLINDRICAL_SURFACE ( 'NONE', #30, 2.973999999999994870 ) ;
#169 = ADVANCED_FACE ( 'NONE', ( #80, #193 ), #204, .T. ) ;
#170 = DIRECTION ( 'NONE',  ( 0.0000000000000000000, 1.000000000000000000, 0.0000000000000000000 ) ) ;
#171 = DIRECTION ( 'NONE',  ( 1.924768187669561759E-30, -1.000000000000000000, 5.512755191489335415E-16 ) ) ;
#172 = DIRECTION ( 'NONE',  ( -3.491481338843133355E-15, 9.031770143711729009E-17, -1.000000000000000000 ) ) ;
#173 = DIRECTION ( 'NONE',  ( -1.924768187669561759E-30, 1.000000000000000000, -5.512755191489335415E-16 ) ) ;
#174 = PLANE ( 'NONE',  #1 ) ;
#175 = CARTESIAN_POINT ( 'NONE',  ( -2.639877208808908061E-30, 2.743059892324148930, -7.560908830988065286E-16 ) ) ;
#176 = CARTESIAN_POINT ( 'NONE',  ( 4.296212252688729567E-14, -1.111344950442706695E-15, 12.30484094213213098 ) ) ;
#177 = EDGE_LOOP ( 'NONE', ( #203 ) ) ;
#178 = APPROVAL ( #229, 'UNSPECIFIED' ) ;
#179 = CARTESIAN_POINT ( 'NONE',  ( 2.793185071074506684E-13, -7.225416114969383207E-15, 80.00000000000000000 ) ) ;
#180 = PERSON_AND_ORGANIZATION_ROLE ( 'design_supplier' ) ;
#181 = LOCAL_TIME ( 11, 4, 27.00000000000000000, #206 ) ;
#182 = LOCAL_TIME ( 11, 4, 27.00000000000000000, #71 ) ;
#183 = DIRECTION ( 'NONE',  ( -3.491481338843133355E-15, 9.031770143711729009E-17, -1.000000000000000000 ) ) ;
#184 = CC_DESIGN_PERSON_AND_ORGANIZATION_ASSIGNMENT ( #32, #180, ( #2 ) ) ;
#185 = APPROVAL_DATE_TIME ( #54, #40 ) ;
#186 = ADVANCED_FACE ( 'NONE', ( #235, #25 ), #135, .T. ) ;
#187 = DATE_AND_TIME ( #131, #64 ) ;
#188 = CIRCLE ( 'NONE', #163, 2.743059892324148930 ) ;
#189 = APPROVAL_PERSON_ORGANIZATION ( #3, #40, #228 ) ;
#190 = CARTESIAN_POINT ( 'NONE',  ( 0.0000000000000000000, 0.0000000000000000000, 0.0000000000000000000 ) ) ;
#191 = FACE_OUTER_BOUND ( 'NONE', #195, .T. ) ;
#192 = CARTESIAN_POINT ( 'NONE',  ( 0.0000000000000000000, 0.0000000000000000000, 0.0000000000000000000 ) ) ;
#193 = FACE_BOUND ( 'NONE', #222, .T. ) ;
#194 = EDGE_CURVE ( 'NONE', #234, #234, #60, .T. ) ;
#195 = EDGE_LOOP ( 'NONE', ( #20 ) ) ;
#196 = AXIS2_PLACEMENT_3D ( 'NONE', #217, #38, #171 ) ;
#197 = FACE_OUTER_BOUND ( 'NONE', #103, .T. ) ;
#198 = ORIENTED_EDGE ( 'NONE', *, *, #98, .F. ) ;
#199 = VERTEX_POINT ( 'NONE', #24 ) ;
#200 = EDGE_CURVE ( 'NONE', #199, #199, #142, .T. ) ;
#201 = DESIGN_CONTEXT ( 'detailed design', #10, 'design' ) ;
#202 = AXIS2_PLACEMENT_3D ( 'NONE', #166, #150, #95 ) ;
#203 = ORIENTED_EDGE ( 'NONE', *, *, #137, .T. ) ;
#204 = CONICAL_SURFACE ( 'NONE', #99, 2.743059892324148930, 0.5235987755982969283 ) ;
#205 = VERTEX_POINT ( 'NONE', #148 ) ;
#206 = COORDINATED_UNIVERSAL_TIME_OFFSET ( 1, 0, .AHEAD. ) ;
#207 = CALENDAR_DATE ( 2021, 26, 11 ) ;
#208 = PRODUCT_DEFINITION_SHAPE ( 'NONE', 'NONE',  #126 ) ;
#209 = CARTESIAN_POINT ( 'NONE',  ( 5.279754417617816123E-30, 8.336287882081402727E-31, 1.512181766197613057E-15 ) ) ;
#210 = MANIFOLD_SOLID_BREP ( 'Corps-Déplacer/Copier1[1]', #92 ) ;
#211 = DATE_AND_TIME ( #207, #182 ) ;
#212 = ORIENTED_EDGE ( 'NONE', *, *, #139, .T. ) ;
#213 = DIRECTION ( 'NONE',  ( -3.491481338843133355E-15, -5.512755191489335415E-16, -1.000000000000000000 ) ) ;
#214 = APPROVAL_ROLE ( '' ) ;
#215 = CARTESIAN_POINT ( 'NONE',  ( 4.296212252688729567E-14, -1.111344950442706695E-15, 12.30484094213213098 ) ) ;
#216 =( NAMED_UNIT ( * ) SI_UNIT ( $, .STERADIAN. ) SOLID_ANGLE_UNIT ( ) );
#217 = CARTESIAN_POINT ( 'NONE',  ( 4.296212252688730198E-14, 6.783357578418942380E-15, 12.30484094213213275 ) ) ;
#218 = CARTESIAN_POINT ( 'NONE',  ( 4.885231259955590439E-14, 1.999999999999990452, 13.99185842870425134 ) ) ;
#219 = ADVANCED_FACE ( 'NONE', ( #197 ), #26, .T. ) ;
#220 = EDGE_LOOP ( 'NONE', ( #91 ) ) ;
#221 = VERTEX_POINT ( 'NONE', #73 ) ;
#222 = EDGE_LOOP ( 'NONE', ( #31 ) ) ;
#223 = FACE_OUTER_BOUND ( 'NONE', #122, .T. ) ;
#224 = LOCAL_TIME ( 11, 4, 27.00000000000000000, #159 ) ;
#225 = DIRECTION ( 'NONE',  ( 3.153425691349006731E-31, 1.000000000000000000, 9.031770143711729009E-17 ) ) ;
#226 = DIRECTION ( 'NONE',  ( -3.491481338843133355E-15, -5.512755191489335415E-16, -1.000000000000000000 ) ) ;
#227 = ADVANCED_FACE ( 'NONE', ( #28 ), #174, .T. ) ;
#228 = APPROVAL_ROLE ( '' ) ;
#229 = APPROVAL_STATUS ( 'not_yet_approved' ) ;
#230 = CIRCLE ( 'NONE', #61, 1.599999999999994982 ) ;
#231 = PERSON_AND_ORGANIZATION ( #118, #75 ) ;
#232 = PERSON_AND_ORGANIZATION_ROLE ( 'classification_officer' ) ;
#233 = ORIENTED_EDGE ( 'NONE', *, *, #139, .F. ) ;
#234 = VERTEX_POINT ( 'NONE', #218 ) ;
#235 = FACE_BOUND ( 'NONE', #177, .T. ) ;
#236 = ADVANCED_FACE ( 'NONE', ( #86 ), #100, .T. ) ;
#237 = EDGE_LOOP ( 'NONE', ( #243 ) ) ;
#238 = CLOSED_SHELL ( 'NONE', ( #21, #154, #169, #236 ) ) ;
#239 = CC_DESIGN_APPROVAL ( #119, ( #84 ) ) ;
#240 = AXIS2_PLACEMENT_3D ( 'NONE', #242, #15, #48 ) ;
#241 = DIRECTION ( 'NONE',  ( -3.491481338843133355E-15, 9.031770143711729009E-17, -1.000000000000000000 ) ) ;
#242 = CARTESIAN_POINT ( 'NONE',  ( 0.0000000000000000000, 0.0000000000000000000, 0.0000000000000000000 ) ) ;
#243 = ORIENTED_EDGE ( 'NONE', *, *, #98, .T. ) ;
ENDSEC;
END-ISO-10303-21;
