ISO-10303-21;
HEADER;
FILE_DESCRIPTION (( 'STEP AP203' ),
    '1' );
FILE_NAME ('321497.step',
    '2021-11-26T10:04:26',
    ( '' ),
    ( '' ),
    'SwSTEP 2.0',
    'SolidWorks 2019',
    '' );
FILE_SCHEMA (( 'CONFIG_CONTROL_DESIGN' ));
ENDSEC;

DATA;
#1 = DATE_TIME_ROLE ( 'classification_date' ) ;
#2 = EDGE_LOOP ( 'NONE', ( #236 ) ) ;
#3 = APPROVAL_DATE_TIME ( #169, #79 ) ;
#4 = MECHANICAL_CONTEXT ( 'NONE', #6, 'mechanical' ) ;
#5 = DIRECTION ( 'NONE',  ( 0.0000000000000000000, 1.000000000000000000, 0.0000000000000000000 ) ) ;
#6 = APPLICATION_CONTEXT ( 'configuration controlled 3d designs of mechanical parts and assemblies' ) ;
#7 = EDGE_CURVE ( 'NONE', #185, #185, #175, .T. ) ;
#8 = CIRCLE ( 'NONE', #73, 2.968999999999998085 ) ;
#9 = CARTESIAN_POINT ( 'NONE',  ( 1.396592535537259061E-15, 2.202862149410690258E-16, 0.4000000000000016320 ) ) ;
#10 = CIRCLE ( 'NONE', #231, 2.968999999999991424 ) ;
#11 = VERTEX_POINT ( 'NONE', #240 ) ;
#12 = PRODUCT_DEFINITION_FORMATION_WITH_SPECIFIED_SOURCE ( 'ANY', '', #212, .NOT_KNOWN. ) ;
#13 = CIRCLE ( 'NONE', #206, 1.999999999999991784 ) ;
#14 = DIRECTION ( 'NONE',  ( 1.000000000000000000, 0.0000000000000000000, 0.0000000000000000000 ) ) ;
#15 = ADVANCED_FACE ( 'NONE', ( #177 ), #88, .T. ) ;
#16 = PERSON_AND_ORGANIZATION ( #230, #24 ) ;
#17 = PRODUCT_RELATED_PRODUCT_CATEGORY ( 'detail', '', ( #212 ) ) ;
#18 = COORDINATED_UNIVERSAL_TIME_OFFSET ( 1, 0, .AHEAD. ) ;
#19 = AXIS2_PLACEMENT_3D ( 'NONE', #106, #184, #229 ) ;
#20 = APPLICATION_CONTEXT ( 'configuration controlled 3d designs of mechanical parts and assemblies' ) ;
#21 = EDGE_CURVE ( 'NONE', #53, #53, #10, .T. ) ;
#22 = DIRECTION ( 'NONE',  ( 0.0000000000000000000, 0.0000000000000000000, 1.000000000000000000 ) ) ;
#23 = MANIFOLD_SOLID_BREP ( 'Corps-Déplacer/Copier1[1]', #117 ) ;
#24 = ORGANIZATION ( 'UNSPECIFIED', 'UNSPECIFIED', '' ) ;
#25 = DIRECTION ( 'NONE',  ( -1.922813021677816907E-30, 1.000000000000000000, -5.507155373526702843E-16 ) ) ;
#26 = CONICAL_SURFACE ( 'NONE', #161, 2.738059892324148592, 0.5235987755982969283 ) ;
#27 = DIRECTION ( 'NONE',  ( -3.491481338843133355E-15, 9.031770143711729009E-17, -1.000000000000000000 ) ) ;
#28 = DIRECTION ( 'NONE',  ( -3.491481338843133355E-15, -5.507155373526702843E-16, -1.000000000000000000 ) ) ;
#29 = CYLINDRICAL_SURFACE ( 'NONE', #188, 2.968999999999994976 ) ;
#30 = CC_DESIGN_SECURITY_CLASSIFICATION ( #65, ( #12 ) ) ;
#31 =( LENGTH_UNIT ( ) NAMED_UNIT ( * ) SI_UNIT ( .MILLI., .METRE. ) );
#32 =( NAMED_UNIT ( * ) PLANE_ANGLE_UNIT ( ) SI_UNIT ( $, .RADIAN. ) );
#33 = APPROVAL_PERSON_ORGANIZATION ( #74, #79, #99 ) ;
#34 = ORIENTED_EDGE ( 'NONE', *, *, #21, .F. ) ;
#35 = APPROVAL_ROLE ( '' ) ;
#36 = APPROVAL_DATE_TIME ( #77, #155 ) ;
#37 = APPROVAL_DATE_TIME ( #211, #193 ) ;
#38 = PERSON_AND_ORGANIZATION ( #230, #24 ) ;
#39 = ORIENTED_EDGE ( 'NONE', *, *, #195, .T. ) ;
#40 = AXIS2_PLACEMENT_3D ( 'NONE', #122, #139, #189 ) ;
#41 = ORIENTED_EDGE ( 'NONE', *, *, #58, .F. ) ;
#42 = DIRECTION ( 'NONE',  ( -2.075774948480691370E-30, 1.000000000000000000, -5.842787052801657616E-16 ) ) ;
#43 = LOCAL_TIME ( 11, 4, 26.00000000000000000, #18 ) ;
#44 = CC_DESIGN_PERSON_AND_ORGANIZATION_ASSIGNMENT ( #100, #111, ( #212 ) ) ;
#45 = ORIENTED_EDGE ( 'NONE', *, *, #118, .F. ) ;
#46 = APPROVAL_PERSON_ORGANIZATION ( #165, #193, #35 ) ;
#47 = FACE_OUTER_BOUND ( 'NONE', #61, .T. ) ;
#48 = CC_DESIGN_PERSON_AND_ORGANIZATION_ASSIGNMENT ( #38, #233, ( #12 ) ) ;
#49 = FACE_OUTER_BOUND ( 'NONE', #200, .T. ) ;
#50 = DIRECTION ( 'NONE',  ( -3.491481338843133355E-15, -5.507155373526702843E-16, -1.000000000000000000 ) ) ;
#51 = CARTESIAN_POINT ( 'NONE',  ( 2.793185071074506684E-13, 1.599999999999987876, 80.00000000000000000 ) ) ;
#52 = AXIS2_PLACEMENT_3D ( 'NONE', #86, #64, #156 ) ;
#53 = VERTEX_POINT ( 'NONE', #105 ) ;
#54 = LOCAL_TIME ( 11, 4, 26.00000000000000000, #57 ) ;
#55 = CARTESIAN_POINT ( 'NONE',  ( 0.0000000000000000000, 0.0000000000000000000, 0.0000000000000000000 ) ) ;
#56 = COORDINATED_UNIVERSAL_TIME_OFFSET ( 1, 0, .AHEAD. ) ;
#57 = COORDINATED_UNIVERSAL_TIME_OFFSET ( 1, 0, .AHEAD. ) ;
#58 = EDGE_CURVE ( 'NONE', #66, #66, #13, .T. ) ;
#59 = APPROVAL_ROLE ( '' ) ;
#60 = CALENDAR_DATE ( 2021, 26, 11 ) ;
#61 = EDGE_LOOP ( 'NONE', ( #95 ) ) ;
#62 = DIRECTION ( 'NONE',  ( -3.491481338843133355E-15, -5.507155373526702843E-16, -1.000000000000000000 ) ) ;
#63 = ADVANCED_FACE ( 'NONE', ( #214, #69 ), #149, .T. ) ;
#64 = DIRECTION ( 'NONE',  ( -3.491481338843133355E-15, 9.031770143711729009E-17, -1.000000000000000000 ) ) ;
#65 = SECURITY_CLASSIFICATION ( '', '', #96 ) ;
#66 = VERTEX_POINT ( 'NONE', #183 ) ;
#67 = FACE_OUTER_BOUND ( 'NONE', #190, .T. ) ;
#68 = CARTESIAN_POINT ( 'NONE',  ( 1.396592535537253342E-15, 2.968999999999998529, 0.4000000000000000222 ) ) ;
#69 = FACE_OUTER_BOUND ( 'NONE', #168, .T. ) ;
#70 = DIRECTION ( 'NONE',  ( 0.0000000000000000000, 1.000000000000000000, 0.0000000000000000000 ) ) ;
#71 = CARTESIAN_POINT ( 'NONE',  ( 2.779219145719134403E-13, 1.999999999999988010, 79.60000000000000853 ) ) ;
#72 = PERSON_AND_ORGANIZATION ( #230, #24 ) ;
#73 = AXIS2_PLACEMENT_3D ( 'NONE', #9, #62, #174 ) ;
#74 = PERSON_AND_ORGANIZATION ( #230, #24 ) ;
#75 = DATE_AND_TIME ( #129, #54 ) ;
#76 = PERSON_AND_ORGANIZATION ( #230, #24 ) ;
#77 = DATE_AND_TIME ( #208, #222 ) ;
#78 = LOCAL_TIME ( 11, 4, 26.00000000000000000, #194 ) ;
#79 = APPROVAL ( #151, 'UNSPECIFIED' ) ;
#80 = SHAPE_DEFINITION_REPRESENTATION ( #162, #128 ) ;
#81 = DIRECTION ( 'NONE',  ( -3.153425691349006731E-31, -1.000000000000000000, -9.031770143711729009E-17 ) ) ;
#82 = CARTESIAN_POINT ( 'NONE',  ( 4.885231259955590439E-14, -1.263712492114123682E-15, 13.99185842870425134 ) ) ;
#83 = AXIS2_PLACEMENT_3D ( 'NONE', #120, #28, #137 ) ;
#84 = EDGE_LOOP ( 'NONE', ( #221 ) ) ;
#85 = ORIENTED_EDGE ( 'NONE', *, *, #7, .T. ) ;
#86 = CARTESIAN_POINT ( 'NONE',  ( 2.779219145719134403E-13, -7.189289034394536528E-15, 79.60000000000000853 ) ) ;
#87 = DESIGN_CONTEXT ( 'detailed design', #20, 'design' ) ;
#88 = PLANE ( 'NONE',  #132 ) ;
#89 = FACE_OUTER_BOUND ( 'NONE', #239, .T. ) ;
#90 = DIRECTION ( 'NONE',  ( -3.491481338843133355E-15, 9.031770143711729009E-17, -1.000000000000000000 ) ) ;
#91 = DIRECTION ( 'NONE',  ( 3.153425691349006731E-31, 1.000000000000000000, 9.031770143711729009E-17 ) ) ;
#92 = DIRECTION ( 'NONE',  ( 0.0000000000000000000, 1.000000000000000000, 0.0000000000000000000 ) ) ;
#93 =( NAMED_UNIT ( * ) SI_UNIT ( $, .STERADIAN. ) SOLID_ANGLE_UNIT ( ) );
#94 = CARTESIAN_POINT ( 'NONE',  ( 2.793185071074506684E-13, -7.225416114969383207E-15, 80.00000000000000000 ) ) ;
#95 = ORIENTED_EDGE ( 'NONE', *, *, #21, .T. ) ;
#96 = SECURITY_CLASSIFICATION_LEVEL ( 'unclassified' ) ;
#97 = ORIENTED_EDGE ( 'NONE', *, *, #176, .F. ) ;
#98 = AXIS2_PLACEMENT_3D ( 'NONE', #205, #90, #70 ) ;
#99 = APPROVAL_ROLE ( '' ) ;
#100 = PERSON_AND_ORGANIZATION ( #230, #24 ) ;
#101 = CARTESIAN_POINT ( 'NONE',  ( 0.0000000000000000000, 0.0000000000000000000, 0.0000000000000000000 ) ) ;
#102 = DIRECTION ( 'NONE',  ( -1.922813021677816907E-30, 1.000000000000000000, -5.507155373526702843E-16 ) ) ;
#103 = CARTESIAN_POINT ( 'NONE',  ( -2.632388607547317198E-30, 2.738059892324148592, -7.539460624525440736E-16 ) ) ;
#104 = ADVANCED_FACE ( 'NONE', ( #134 ), #113, .T. ) ;
#105 = CARTESIAN_POINT ( 'NONE',  ( 4.299235964225005809E-14, 2.968999999999998529, 12.31350119616997318 ) ) ;
#106 = CARTESIAN_POINT ( 'NONE',  ( 4.299235964225005809E-14, 6.781236427941496236E-15, 12.31350119616997318 ) ) ;
#107 = PLANE ( 'NONE',  #19 ) ;
#108 = MANIFOLD_SOLID_BREP ( 'Corps-Déplacer/Copier1[2]', #124 ) ;
#109 = EDGE_LOOP ( 'NONE', ( #126 ) ) ;
#110 = DATE_TIME_ROLE ( 'creation_date' ) ;
#111 = PERSON_AND_ORGANIZATION_ROLE ( 'design_owner' ) ;
#112 = PERSON_AND_ORGANIZATION_ROLE ( 'creator' ) ;
#113 = PLANE ( 'NONE',  #181 ) ;
#114 = ORIENTED_EDGE ( 'NONE', *, *, #118, .T. ) ;
#115 = CC_DESIGN_DATE_AND_TIME_ASSIGNMENT ( #75, #110, ( #204 ) ) ;
#116 = DIRECTION ( 'NONE',  ( -3.491481338843133355E-15, 9.031770143711729009E-17, -1.000000000000000000 ) ) ;
#117 = CLOSED_SHELL ( 'NONE', ( #104, #63, #133, #238, #15 ) ) ;
#118 = EDGE_CURVE ( 'NONE', #11, #11, #152, .T. ) ;
#119 = AXIS2_PLACEMENT_3D ( 'NONE', #55, #22, #14 ) ;
#120 = CARTESIAN_POINT ( 'NONE',  ( 5.264777215094634396E-30, 8.304196218369655017E-31, 1.507892124905088147E-15 ) ) ;
#121 = CYLINDRICAL_SURFACE ( 'NONE', #166, 1.999999999999993561 ) ;
#122 = CARTESIAN_POINT ( 'NONE',  ( 2.779219145719134403E-13, -7.189289034394536528E-15, 79.60000000000000853 ) ) ;
#123 = ORIENTED_EDGE ( 'NONE', *, *, #232, .T. ) ;
#124 = CLOSED_SHELL ( 'NONE', ( #220, #143, #199, #141 ) ) ;
#125 = PERSON_AND_ORGANIZATION ( #230, #24 ) ;
#126 = ORIENTED_EDGE ( 'NONE', *, *, #176, .T. ) ;
#127 = COORDINATED_UNIVERSAL_TIME_OFFSET ( 1, 0, .AHEAD. ) ;
#128 = ADVANCED_BREP_SHAPE_REPRESENTATION ( '321497', ( #23, #108, #119 ), #172 ) ;
#129 = CALENDAR_DATE ( 2021, 26, 11 ) ;
#130 = APPROVAL_PERSON_ORGANIZATION ( #125, #155, #59 ) ;
#131 = APPLICATION_PROTOCOL_DEFINITION ( 'international standard', 'config_control_design', 1994, #6 ) ;
#132 = AXIS2_PLACEMENT_3D ( 'NONE', #224, #116, #218 ) ;
#133 = ADVANCED_FACE ( 'NONE', ( #173, #89 ), #121, .T. ) ;
#134 = FACE_OUTER_BOUND ( 'NONE', #84, .T. ) ;
#135 = CARTESIAN_POINT ( 'NONE',  ( 2.793185071074506684E-13, -7.225416114969383207E-15, 80.00000000000000000 ) ) ;
#136 = CC_DESIGN_APPROVAL ( #79, ( #65 ) ) ;
#137 = DIRECTION ( 'NONE',  ( -1.922813021677817257E-30, 1.000000000000000000, -5.507155373526702843E-16 ) ) ;
#138 = FACE_OUTER_BOUND ( 'NONE', #109, .T. ) ;
#139 = DIRECTION ( 'NONE',  ( -3.491481338843133355E-15, 9.031770143711729009E-17, -1.000000000000000000 ) ) ;
#140 = FACE_OUTER_BOUND ( 'NONE', #150, .T. ) ;
#141 = ADVANCED_FACE ( 'NONE', ( #67 ), #198, .T. ) ;
#142 = CC_DESIGN_APPROVAL ( #155, ( #204 ) ) ;
#143 = ADVANCED_FACE ( 'NONE', ( #47, #140 ), #29, .T. ) ;
#144 = VERTEX_POINT ( 'NONE', #51 ) ;
#145 = CC_DESIGN_PERSON_AND_ORGANIZATION_ASSIGNMENT ( #72, #191, ( #65 ) ) ;
#146 = DATE_AND_TIME ( #171, #78 ) ;
#147 = FACE_BOUND ( 'NONE', #2, .T. ) ;
#148 = LOCAL_TIME ( 11, 4, 26.00000000000000000, #56 ) ;
#149 = CONICAL_SURFACE ( 'NONE', #40, 1.999999999999995337, 0.7853981633974516097 ) ;
#150 = EDGE_LOOP ( 'NONE', ( #97 ) ) ;
#151 = APPROVAL_STATUS ( 'not_yet_approved' ) ;
#152 = CIRCLE ( 'NONE', #217, 2.968999999999999861 ) ;
#153 = APPROVAL_STATUS ( 'not_yet_approved' ) ;
#154 = CONICAL_SURFACE ( 'NONE', #98, 2.968999999999999861, 0.5235987755982931535 ) ;
#155 = APPROVAL ( #215, 'UNSPECIFIED' ) ;
#156 = DIRECTION ( 'NONE',  ( 0.0000000000000000000, 1.000000000000000000, 0.0000000000000000000 ) ) ;
#157 = DIRECTION ( 'NONE',  ( -3.491481338843133355E-15, -5.507155373526702843E-16, -1.000000000000000000 ) ) ;
#158 = CARTESIAN_POINT ( 'NONE',  ( 0.0000000000000000000, 0.0000000000000000000, 0.0000000000000000000 ) ) ;
#159 = CC_DESIGN_PERSON_AND_ORGANIZATION_ASSIGNMENT ( #76, #213, ( #204 ) ) ;
#160 = CARTESIAN_POINT ( 'NONE',  ( 5.264777215094634396E-30, 8.304196218369655017E-31, 1.507892124905088147E-15 ) ) ;
#161 = AXIS2_PLACEMENT_3D ( 'NONE', #160, #228, #186 ) ;
#162 = PRODUCT_DEFINITION_SHAPE ( 'NONE', 'NONE',  #204 ) ;
#163 = EDGE_LOOP ( 'NONE', ( #39 ) ) ;
#164 = EDGE_LOOP ( 'NONE', ( #34 ) ) ;
#165 = PERSON_AND_ORGANIZATION ( #230, #24 ) ;
#166 = AXIS2_PLACEMENT_3D ( 'NONE', #158, #27, #91 ) ;
#167 = AXIS2_PLACEMENT_3D ( 'NONE', #103, #157, #25 ) ;
#168 = EDGE_LOOP ( 'NONE', ( #243 ) ) ;
#169 = DATE_AND_TIME ( #210, #148 ) ;
#170 = CC_DESIGN_DATE_AND_TIME_ASSIGNMENT ( #146, #1, ( #65 ) ) ;
#171 = CALENDAR_DATE ( 2021, 26, 11 ) ;
#172 =( GEOMETRIC_REPRESENTATION_CONTEXT ( 3 ) GLOBAL_UNCERTAINTY_ASSIGNED_CONTEXT ( ( #225 ) ) GLOBAL_UNIT_ASSIGNED_CONTEXT ( ( #31, #32, #93 ) ) REPRESENTATION_CONTEXT ( 'NONE', 'WORKASPACE' ) );
#173 = FACE_OUTER_BOUND ( 'NONE', #163, .T. ) ;
#174 = DIRECTION ( 'NONE',  ( -1.946039014200643758E-30, 1.000000000000000000, -5.477612862001541627E-16 ) ) ;
#175 = CIRCLE ( 'NONE', #83, 2.738059892324148592 ) ;
#176 = EDGE_CURVE ( 'NONE', #182, #182, #8, .T. ) ;
#177 = FACE_OUTER_BOUND ( 'NONE', #223, .T. ) ;
#178 = CIRCLE ( 'NONE', #52, 1.999999999999995337 ) ;
#179 = FACE_BOUND ( 'NONE', #237, .T. ) ;
#180 = DIRECTION ( 'NONE',  ( 0.0000000000000000000, 1.000000000000000000, 0.0000000000000000000 ) ) ;
#181 = AXIS2_PLACEMENT_3D ( 'NONE', #135, #216, #81 ) ;
#182 = VERTEX_POINT ( 'NONE', #68 ) ;
#183 = CARTESIAN_POINT ( 'NONE',  ( 4.885231259955590439E-14, 1.999999999999990452, 13.99185842870425134 ) ) ;
#184 = DIRECTION ( 'NONE',  ( 3.491481338843133355E-15, 5.507155373526702843E-16, 1.000000000000000000 ) ) ;
#185 = VERTEX_POINT ( 'NONE', #242 ) ;
#186 = DIRECTION ( 'NONE',  ( 1.922813021677817608E-30, -1.000000000000000000, 5.507155373526702843E-16 ) ) ;
#187 = CC_DESIGN_APPROVAL ( #193, ( #12 ) ) ;
#188 = AXIS2_PLACEMENT_3D ( 'NONE', #101, #50, #102 ) ;
#189 = DIRECTION ( 'NONE',  ( 0.0000000000000000000, 1.000000000000000000, 0.0000000000000000000 ) ) ;
#190 = EDGE_LOOP ( 'NONE', ( #85 ) ) ;
#191 = PERSON_AND_ORGANIZATION_ROLE ( 'classification_officer' ) ;
#192 = DIRECTION ( 'NONE',  ( -3.491481338843133355E-15, 9.031770143711729009E-17, -1.000000000000000000 ) ) ;
#193 = APPROVAL ( #153, 'UNSPECIFIED' ) ;
#194 = COORDINATED_UNIVERSAL_TIME_OFFSET ( 1, 0, .AHEAD. ) ;
#195 = EDGE_CURVE ( 'NONE', #227, #227, #178, .T. ) ;
#196 = CARTESIAN_POINT ( 'NONE',  ( 4.299235964225006440E-14, 6.781236427941496236E-15, 12.31350119616997496 ) ) ;
#197 = DIRECTION ( 'NONE',  ( -3.491481338843133355E-15, 9.031770143711729009E-17, -1.000000000000000000 ) ) ;
#198 = PLANE ( 'NONE',  #167 ) ;
#199 = ADVANCED_FACE ( 'NONE', ( #138, #147 ), #26, .T. ) ;
#200 = EDGE_LOOP ( 'NONE', ( #45 ) ) ;
#201 = CIRCLE ( 'NONE', #234, 1.599999999999994982 ) ;
#202 = CARTESIAN_POINT ( 'NONE',  ( 4.299235964225005809E-14, -1.112127124681266385E-15, 12.31350119616997318 ) ) ;
#203 = ORIENTED_EDGE ( 'NONE', *, *, #58, .T. ) ;
#204 = PRODUCT_DEFINITION ( 'UNKNOWN', '', #12, #87 ) ;
#205 = CARTESIAN_POINT ( 'NONE',  ( 4.299235964225005809E-14, -1.112127124681266385E-15, 12.31350119616997318 ) ) ;
#206 = AXIS2_PLACEMENT_3D ( 'NONE', #82, #192, #5 ) ;
#207 = EDGE_LOOP ( 'NONE', ( #123 ) ) ;
#208 = CALENDAR_DATE ( 2021, 26, 11 ) ;
#209 = DIRECTION ( 'NONE',  ( -3.491481338843133355E-15, 9.031770143711729009E-17, -1.000000000000000000 ) ) ;
#210 = CALENDAR_DATE ( 2021, 26, 11 ) ;
#211 = DATE_AND_TIME ( #60, #43 ) ;
#212 = PRODUCT ( '321497', '321497', '', ( #4 ) ) ;
#213 = PERSON_AND_ORGANIZATION_ROLE ( 'creator' ) ;
#214 = FACE_BOUND ( 'NONE', #207, .T. ) ;
#215 = APPROVAL_STATUS ( 'not_yet_approved' ) ;
#216 = DIRECTION ( 'NONE',  ( 3.491481338843133355E-15, -9.031770143711729009E-17, 1.000000000000000000 ) ) ;
#217 = AXIS2_PLACEMENT_3D ( 'NONE', #202, #197, #180 ) ;
#218 = DIRECTION ( 'NONE',  ( 3.153425691349006731E-31, 1.000000000000000000, 9.031770143711729009E-17 ) ) ;
#219 = DIRECTION ( 'NONE',  ( -3.491481338843133355E-15, -5.507155373526702843E-16, -1.000000000000000000 ) ) ;
#220 = ADVANCED_FACE ( 'NONE', ( #241 ), #107, .T. ) ;
#221 = ORIENTED_EDGE ( 'NONE', *, *, #232, .F. ) ;
#222 = LOCAL_TIME ( 11, 4, 26.00000000000000000, #127 ) ;
#223 = EDGE_LOOP ( 'NONE', ( #114 ) ) ;
#224 = CARTESIAN_POINT ( 'NONE',  ( 4.299235964225005809E-14, 2.968999999999998529, 12.31350119616997318 ) ) ;
#225 = UNCERTAINTY_MEASURE_WITH_UNIT (LENGTH_MEASURE( 1.000000000000000082E-05 ), #31, 'distance_accuracy_value', 'NONE');
#226 = CC_DESIGN_PERSON_AND_ORGANIZATION_ASSIGNMENT ( #16, #112, ( #12 ) ) ;
#227 = VERTEX_POINT ( 'NONE', #71 ) ;
#228 = DIRECTION ( 'NONE',  ( 3.491481338843133355E-15, 5.507155373526702843E-16, 1.000000000000000000 ) ) ;
#229 = DIRECTION ( 'NONE',  ( 1.922813021677816907E-30, -1.000000000000000000, 5.507155373526702843E-16 ) ) ;
#230 = PERSON ( 'UNSPECIFIED', 'UNSPECIFIED', 'UNSPECIFIED', ('UNSPECIFIED'), ('UNSPECIFIED'), ('UNSPECIFIED') ) ;
#231 = AXIS2_PLACEMENT_3D ( 'NONE', #196, #219, #42 ) ;
#232 = EDGE_CURVE ( 'NONE', #144, #144, #201, .T. ) ;
#233 = PERSON_AND_ORGANIZATION_ROLE ( 'design_supplier' ) ;
#234 = AXIS2_PLACEMENT_3D ( 'NONE', #94, #209, #92 ) ;
#235 = APPLICATION_PROTOCOL_DEFINITION ( 'international standard', 'config_control_design', 1994, #20 ) ;
#236 = ORIENTED_EDGE ( 'NONE', *, *, #7, .F. ) ;
#237 = EDGE_LOOP ( 'NONE', ( #203 ) ) ;
#238 = ADVANCED_FACE ( 'NONE', ( #179, #49 ), #154, .T. ) ;
#239 = EDGE_LOOP ( 'NONE', ( #41 ) ) ;
#240 = CARTESIAN_POINT ( 'NONE',  ( 4.299235964225005809E-14, 2.968999999999998529, 12.31350119616997318 ) ) ;
#241 = FACE_OUTER_BOUND ( 'NONE', #164, .T. ) ;
#242 = CARTESIAN_POINT ( 'NONE',  ( -6.842277657836020854E-46, 2.738059892324148592, 0.0000000000000000000 ) ) ;
#243 = ORIENTED_EDGE ( 'NONE', *, *, #195, .F. ) ;
ENDSEC;
END-ISO-10303-21;
