ISO-10303-21;
HEADER;
FILE_DESCRIPTION (( 'STEP AP203' ),
    '1' );
FILE_NAME ('321496.step',
    '2021-11-26T10:04:25',
    ( '' ),
    ( '' ),
    'SwSTEP 2.0',
    'SolidWorks 2019',
    '' );
FILE_SCHEMA (( 'CONFIG_CONTROL_DESIGN' ));
ENDSEC;

DATA;
#1 = PERSON_AND_ORGANIZATION ( #79, #51 ) ;
#2 = CALENDAR_DATE ( 2021, 26, 11 ) ;
#3 = FACE_OUTER_BOUND ( 'NONE', #224, .T. ) ;
#4 = CIRCLE ( 'NONE', #161, 1.999999999999995337 ) ;
#5 = DIRECTION ( 'NONE',  ( -1.920860603943223946E-30, 1.000000000000000000, -5.501563426885397460E-16 ) ) ;
#6 = CIRCLE ( 'NONE', #123, 2.963999999999999968 ) ;
#7 = ADVANCED_FACE ( 'NONE', ( #113 ), #136, .T. ) ;
#8 = DIRECTION ( 'NONE',  ( 0.0000000000000000000, 1.000000000000000000, 0.0000000000000000000 ) ) ;
#9 = EDGE_CURVE ( 'NONE', #238, #238, #121, .T. ) ;
#10 = DIRECTION ( 'NONE',  ( -3.491481338843133355E-15, -5.501563426885397460E-16, -1.000000000000000000 ) ) ;
#11 = ORIENTED_EDGE ( 'NONE', *, *, #226, .T. ) ;
#12 = VERTEX_POINT ( 'NONE', #91 ) ;
#13 = ORIENTED_EDGE ( 'NONE', *, *, #174, .T. ) ;
#14 = CIRCLE ( 'NONE', #230, 2.963999999999998192 ) ;
#15 = ORIENTED_EDGE ( 'NONE', *, *, #197, .T. ) ;
#16 = CONICAL_SURFACE ( 'NONE', #30, 2.733059892324149143, 0.5235987755982969283 ) ;
#17 = DIRECTION ( 'NONE',  ( -3.491481338843133355E-15, 9.031770143711729009E-17, -1.000000000000000000 ) ) ;
#18 = COORDINATED_UNIVERSAL_TIME_OFFSET ( 1, 0, .AHEAD. ) ;
#19 = PERSON_AND_ORGANIZATION_ROLE ( 'design_owner' ) ;
#20 = APPROVAL_STATUS ( 'not_yet_approved' ) ;
#21 = CLOSED_SHELL ( 'NONE', ( #68, #201, #142, #7 ) ) ;
#22 = PERSON_AND_ORGANIZATION ( #79, #51 ) ;
#23 = DIRECTION ( 'NONE',  ( -3.491481338843133355E-15, -5.501563426885397460E-16, -1.000000000000000000 ) ) ;
#24 = PRODUCT ( '321496', '321496', '', ( #60 ) ) ;
#25 = CALENDAR_DATE ( 2021, 26, 11 ) ;
#26 = LOCAL_TIME ( 11, 4, 25.00000000000000000, #18 ) ;
#27 = DIRECTION ( 'NONE',  ( 1.920860603943224297E-30, -1.000000000000000000, 5.501563426885397460E-16 ) ) ;
#28 = CC_DESIGN_PERSON_AND_ORGANIZATION_ASSIGNMENT ( #37, #169, ( #176 ) ) ;
#29 = DIRECTION ( 'NONE',  ( -3.491481338843133355E-15, 9.031770143711729009E-17, -1.000000000000000000 ) ) ;
#30 = AXIS2_PLACEMENT_3D ( 'NONE', #229, #64, #50 ) ;
#31 = VERTEX_POINT ( 'NONE', #236 ) ;
#32 = ORIENTED_EDGE ( 'NONE', *, *, #197, .F. ) ;
#33 = VERTEX_POINT ( 'NONE', #52 ) ;
#34 = ORIENTED_EDGE ( 'NONE', *, *, #212, .T. ) ;
#35 = FACE_OUTER_BOUND ( 'NONE', #70, .T. ) ;
#36 = EDGE_LOOP ( 'NONE', ( #205 ) ) ;
#37 = PERSON_AND_ORGANIZATION ( #79, #51 ) ;
#38 = EDGE_LOOP ( 'NONE', ( #200 ) ) ;
#39 = EDGE_LOOP ( 'NONE', ( #172 ) ) ;
#40 = EDGE_CURVE ( 'NONE', #33, #33, #4, .T. ) ;
#41 = DIRECTION ( 'NONE',  ( 1.000000000000000000, 0.0000000000000000000, 0.0000000000000000000 ) ) ;
#42 = EDGE_LOOP ( 'NONE', ( #13 ) ) ;
#43 = APPROVAL_PERSON_ORGANIZATION ( #1, #101, #208 ) ;
#44 = APPROVAL_DATE_TIME ( #94, #101 ) ;
#45 = ADVANCED_FACE ( 'NONE', ( #102 ), #233, .T. ) ;
#46 = APPROVAL_STATUS ( 'not_yet_approved' ) ;
#47 = CARTESIAN_POINT ( 'NONE',  ( 4.302259675761283945E-14, -1.112909298919826076E-15, 12.32216145020781894 ) ) ;
#48 = DIRECTION ( 'NONE',  ( -3.491481338843133355E-15, -5.501563426885397460E-16, -1.000000000000000000 ) ) ;
#49 = PLANE ( 'NONE',  #117 ) ;
#50 = DIRECTION ( 'NONE',  ( 1.920860603943224297E-30, -1.000000000000000000, 5.501563426885397460E-16 ) ) ;
#51 = ORGANIZATION ( 'UNSPECIFIED', 'UNSPECIFIED', '' ) ;
#52 = CARTESIAN_POINT ( 'NONE',  ( 2.779219145719134403E-13, 1.999999999999988010, 79.60000000000000853 ) ) ;
#53 = EDGE_LOOP ( 'NONE', ( #74 ) ) ;
#54 = AXIS2_PLACEMENT_3D ( 'NONE', #220, #222, #133 ) ;
#55 = CARTESIAN_POINT ( 'NONE',  ( 4.302259675761283945E-14, 2.963999999999998636, 12.32216145020781894 ) ) ;
#56 = CARTESIAN_POINT ( 'NONE',  ( 4.302259675761283313E-14, 2.963999999999998636, 12.32216145020781717 ) ) ;
#57 = DIRECTION ( 'NONE',  ( -1.920860603943224647E-30, 1.000000000000000000, -5.501563426885397460E-16 ) ) ;
#58 = CALENDAR_DATE ( 2021, 26, 11 ) ;
#59 = AXIS2_PLACEMENT_3D ( 'NONE', #155, #48, #5 ) ;
#60 = MECHANICAL_CONTEXT ( 'NONE', #122, 'mechanical' ) ;
#61 = DIRECTION ( 'NONE',  ( 0.0000000000000000000, 0.0000000000000000000, 1.000000000000000000 ) ) ;
#62 = SECURITY_CLASSIFICATION_LEVEL ( 'unclassified' ) ;
#63 = LOCAL_TIME ( 11, 4, 25.00000000000000000, #115 ) ;
#64 = DIRECTION ( 'NONE',  ( 3.491481338843133355E-15, 5.501563426885397460E-16, 1.000000000000000000 ) ) ;
#65 = DATE_AND_TIME ( #152, #88 ) ;
#66 = DIRECTION ( 'NONE',  ( -3.153425691349006731E-31, -1.000000000000000000, -9.031770143711729009E-17 ) ) ;
#67 = CIRCLE ( 'NONE', #190, 2.963999999999991974 ) ;
#68 = ADVANCED_FACE ( 'NONE', ( #214 ), #49, .T. ) ;
#69 = CARTESIAN_POINT ( 'NONE',  ( 4.302259675761284576E-14, 6.779115277464047725E-15, 12.32216145020782072 ) ) ;
#70 = EDGE_LOOP ( 'NONE', ( #125 ) ) ;
#71 = APPLICATION_PROTOCOL_DEFINITION ( 'international standard', 'config_control_design', 1994, #122 ) ;
#72 = AXIS2_PLACEMENT_3D ( 'NONE', #198, #163, #57 ) ;
#73 = VERTEX_POINT ( 'NONE', #55 ) ;
#74 = ORIENTED_EDGE ( 'NONE', *, *, #144, .F. ) ;
#75 = CARTESIAN_POINT ( 'NONE',  ( 6.842277657836020854E-46, 2.733059892324149143, 0.0000000000000000000 ) ) ;
#76 = PLANE ( 'NONE',  #111 ) ;
#77 = PERSON_AND_ORGANIZATION ( #79, #51 ) ;
#78 = DATE_AND_TIME ( #2, #103 ) ;
#79 = PERSON ( 'UNSPECIFIED', 'UNSPECIFIED', 'UNSPECIFIED', ('UNSPECIFIED'), ('UNSPECIFIED'), ('UNSPECIFIED') ) ;
#80 = PERSON_AND_ORGANIZATION ( #79, #51 ) ;
#81 = PERSON_AND_ORGANIZATION_ROLE ( 'creator' ) ;
#82 = SHAPE_DEFINITION_REPRESENTATION ( #202, #147 ) ;
#83 = CIRCLE ( 'NONE', #235, 1.599999999999994982 ) ;
#84 = FACE_OUTER_BOUND ( 'NONE', #210, .T. ) ;
#85 = CC_DESIGN_APPROVAL ( #154, ( #221 ) ) ;
#86 = CARTESIAN_POINT ( 'NONE',  ( 2.793185071074506684E-13, -7.225416114969383207E-15, 80.00000000000000000 ) ) ;
#87 = DESIGN_CONTEXT ( 'detailed design', #139, 'design' ) ;
#88 = LOCAL_TIME ( 11, 4, 25.00000000000000000, #131 ) ;
#89 = CARTESIAN_POINT ( 'NONE',  ( 1.396592535537253342E-15, 2.963999999999998636, 0.4000000000000000222 ) ) ;
#90 = AXIS2_PLACEMENT_3D ( 'NONE', #86, #215, #66 ) ;
#91 = CARTESIAN_POINT ( 'NONE',  ( 4.302259675761283945E-14, 2.963999999999998636, 12.32216145020781894 ) ) ;
#92 = EDGE_LOOP ( 'NONE', ( #32 ) ) ;
#93 = CARTESIAN_POINT ( 'NONE',  ( 0.0000000000000000000, 0.0000000000000000000, 0.0000000000000000000 ) ) ;
#94 = DATE_AND_TIME ( #96, #223 ) ;
#95 = APPROVAL_DATE_TIME ( #182, #154 ) ;
#96 = CALENDAR_DATE ( 2021, 26, 11 ) ;
#97 = FACE_OUTER_BOUND ( 'NONE', #38, .T. ) ;
#98 = DIRECTION ( 'NONE',  ( -1.920860603943224297E-30, 1.000000000000000000, -5.501563426885397460E-16 ) ) ;
#99 = FACE_OUTER_BOUND ( 'NONE', #107, .T. ) ;
#100 = DIRECTION ( 'NONE',  ( -3.491481338843133355E-15, 9.031770143711729009E-17, -1.000000000000000000 ) ) ;
#101 = APPROVAL ( #20, 'UNSPECIFIED' ) ;
#102 = FACE_OUTER_BOUND ( 'NONE', #92, .T. ) ;
#103 = LOCAL_TIME ( 11, 4, 25.00000000000000000, #225 ) ;
#104 = DIRECTION ( 'NONE',  ( -2.079276593130624690E-30, 1.000000000000000000, -5.852643306264547361E-16 ) ) ;
#105 = PRODUCT_RELATED_PRODUCT_CATEGORY ( 'detail', '', ( #24 ) ) ;
#106 = DIRECTION ( 'NONE',  ( 3.153425691349006731E-31, 1.000000000000000000, 9.031770143711729009E-17 ) ) ;
#107 = EDGE_LOOP ( 'NONE', ( #34 ) ) ;
#108 = MANIFOLD_SOLID_BREP ( 'Corps-Déplacer/Copier1[2]', #21 ) ;
#109 = VERTEX_POINT ( 'NONE', #89 ) ;
#110 = DIRECTION ( 'NONE',  ( 0.0000000000000000000, 1.000000000000000000, 0.0000000000000000000 ) ) ;
#111 = AXIS2_PLACEMENT_3D ( 'NONE', #56, #127, #106 ) ;
#112 =( NAMED_UNIT ( * ) SI_UNIT ( $, .STERADIAN. ) SOLID_ANGLE_UNIT ( ) );
#113 = FACE_OUTER_BOUND ( 'NONE', #145, .T. ) ;
#114 = DATE_TIME_ROLE ( 'classification_date' ) ;
#115 = COORDINATED_UNIVERSAL_TIME_OFFSET ( 1, 0, .AHEAD. ) ;
#116 = ORIENTED_EDGE ( 'NONE', *, *, #9, .F. ) ;
#117 = AXIS2_PLACEMENT_3D ( 'NONE', #213, #159, #27 ) ;
#118 = EDGE_LOOP ( 'NONE', ( #116 ) ) ;
#119 = DATE_TIME_ROLE ( 'creation_date' ) ;
#120 = ADVANCED_FACE ( 'NONE', ( #188, #3 ), #241, .T. ) ;
#121 = CIRCLE ( 'NONE', #59, 2.733059892324149143 ) ;
#122 = APPLICATION_CONTEXT ( 'configuration controlled 3d designs of mechanical parts and assemblies' ) ;
#123 = AXIS2_PLACEMENT_3D ( 'NONE', #179, #167, #110 ) ;
#124 = AXIS2_PLACEMENT_3D ( 'NONE', #47, #100, #227 ) ;
#125 = ORIENTED_EDGE ( 'NONE', *, *, #40, .T. ) ;
#126 = ADVANCED_FACE ( 'NONE', ( #148, #97 ), #151, .T. ) ;
#127 = DIRECTION ( 'NONE',  ( -3.491481338843133355E-15, 9.031770143711729009E-17, -1.000000000000000000 ) ) ;
#128 = UNCERTAINTY_MEASURE_WITH_UNIT (LENGTH_MEASURE( 1.000000000000000082E-05 ), #165, 'distance_accuracy_value', 'NONE');
#129 = CYLINDRICAL_SURFACE ( 'NONE', #175, 1.999999999999993561 ) ;
#130 = AXIS2_PLACEMENT_3D ( 'NONE', #177, #61, #41 ) ;
#131 = COORDINATED_UNIVERSAL_TIME_OFFSET ( 1, 0, .AHEAD. ) ;
#132 = CC_DESIGN_PERSON_AND_ORGANIZATION_ASSIGNMENT ( #22, #81, ( #219 ) ) ;
#133 = DIRECTION ( 'NONE',  ( 0.0000000000000000000, 1.000000000000000000, 0.0000000000000000000 ) ) ;
#134 = PERSON_AND_ORGANIZATION_ROLE ( 'creator' ) ;
#135 = APPROVAL_STATUS ( 'not_yet_approved' ) ;
#136 = PLANE ( 'NONE',  #143 ) ;
#137 = PERSON_AND_ORGANIZATION ( #79, #51 ) ;
#138 = CC_DESIGN_DATE_AND_TIME_ASSIGNMENT ( #231, #114, ( #176 ) ) ;
#139 = APPLICATION_CONTEXT ( 'configuration controlled 3d designs of mechanical parts and assemblies' ) ;
#140 = COORDINATED_UNIVERSAL_TIME_OFFSET ( 1, 0, .AHEAD. ) ;
#141 = ORIENTED_EDGE ( 'NONE', *, *, #226, .F. ) ;
#142 = ADVANCED_FACE ( 'NONE', ( #156, #232 ), #16, .T. ) ;
#143 = AXIS2_PLACEMENT_3D ( 'NONE', #187, #23, #98 ) ;
#144 = EDGE_CURVE ( 'NONE', #31, #31, #173, .T. ) ;
#145 = EDGE_LOOP ( 'NONE', ( #153 ) ) ;
#146 =( GEOMETRIC_REPRESENTATION_CONTEXT ( 3 ) GLOBAL_UNCERTAINTY_ASSIGNED_CONTEXT ( ( #128 ) ) GLOBAL_UNIT_ASSIGNED_CONTEXT ( ( #165, #199, #112 ) ) REPRESENTATION_CONTEXT ( 'NONE', 'WORKASPACE' ) );
#147 = ADVANCED_BREP_SHAPE_REPRESENTATION ( '321496', ( #189, #108, #130 ), #146 ) ;
#148 = FACE_BOUND ( 'NONE', #36, .T. ) ;
#149 = DIRECTION ( 'NONE',  ( -3.491481338843133355E-15, 9.031770143711729009E-17, -1.000000000000000000 ) ) ;
#150 = APPROVAL_ROLE ( '' ) ;
#151 = CONICAL_SURFACE ( 'NONE', #124, 2.963999999999999968, 0.5235987755982933756 ) ;
#152 = CALENDAR_DATE ( 2021, 26, 11 ) ;
#153 = ORIENTED_EDGE ( 'NONE', *, *, #9, .T. ) ;
#154 = APPROVAL ( #46, 'UNSPECIFIED' ) ;
#155 = CARTESIAN_POINT ( 'NONE',  ( 5.249827075382768741E-30, 8.272207075569938057E-31, 1.503610234709788080E-15 ) ) ;
#156 = FACE_OUTER_BOUND ( 'NONE', #180, .T. ) ;
#157 = APPROVAL_ROLE ( '' ) ;
#158 = ORIENTED_EDGE ( 'NONE', *, *, #40, .F. ) ;
#159 = DIRECTION ( 'NONE',  ( 3.491481338843133355E-15, 5.501563426885397460E-16, 1.000000000000000000 ) ) ;
#160 = CARTESIAN_POINT ( 'NONE',  ( 2.779219145719134403E-13, -7.189289034394536528E-15, 79.60000000000000853 ) ) ;
#161 = AXIS2_PLACEMENT_3D ( 'NONE', #160, #29, #8 ) ;
#162 = ADVANCED_FACE ( 'NONE', ( #218 ), #76, .T. ) ;
#163 = DIRECTION ( 'NONE',  ( -3.491481338843133355E-15, -5.501563426885397460E-16, -1.000000000000000000 ) ) ;
#164 = CLOSED_SHELL ( 'NONE', ( #45, #120, #192, #126, #162 ) ) ;
#165 =( LENGTH_UNIT ( ) NAMED_UNIT ( * ) SI_UNIT ( .MILLI., .METRE. ) );
#166 = CC_DESIGN_PERSON_AND_ORGANIZATION_ASSIGNMENT ( #80, #134, ( #221 ) ) ;
#167 = DIRECTION ( 'NONE',  ( -3.491481338843133355E-15, 9.031770143711729009E-17, -1.000000000000000000 ) ) ;
#168 = DIRECTION ( 'NONE',  ( 3.153425691349006731E-31, 1.000000000000000000, 9.031770143711729009E-17 ) ) ;
#169 = PERSON_AND_ORGANIZATION_ROLE ( 'classification_officer' ) ;
#170 = AXIS2_PLACEMENT_3D ( 'NONE', #209, #211, #184 ) ;
#171 = CYLINDRICAL_SURFACE ( 'NONE', #72, 2.963999999999995083 ) ;
#172 = ORIENTED_EDGE ( 'NONE', *, *, #212, .F. ) ;
#173 = CIRCLE ( 'NONE', #54, 1.999999999999991784 ) ;
#174 = EDGE_CURVE ( 'NONE', #73, #73, #6, .T. ) ;
#175 = AXIS2_PLACEMENT_3D ( 'NONE', #93, #17, #168 ) ;
#176 = SECURITY_CLASSIFICATION ( '', '', #62 ) ;
#177 = CARTESIAN_POINT ( 'NONE',  ( 0.0000000000000000000, 0.0000000000000000000, 0.0000000000000000000 ) ) ;
#178 = CARTESIAN_POINT ( 'NONE',  ( 2.793185071074506684E-13, 1.599999999999987876, 80.00000000000000000 ) ) ;
#179 = CARTESIAN_POINT ( 'NONE',  ( 4.302259675761283945E-14, -1.112909298919826076E-15, 12.32216145020781894 ) ) ;
#180 = EDGE_LOOP ( 'NONE', ( #11 ) ) ;
#181 = FACE_OUTER_BOUND ( 'NONE', #53, .T. ) ;
#182 = DATE_AND_TIME ( #58, #63 ) ;
#183 = DIRECTION ( 'NONE',  ( 0.0000000000000000000, 1.000000000000000000, 0.0000000000000000000 ) ) ;
#184 = DIRECTION ( 'NONE',  ( 0.0000000000000000000, 1.000000000000000000, 0.0000000000000000000 ) ) ;
#185 = APPROVAL_PERSON_ORGANIZATION ( #77, #154, #150 ) ;
#186 = PERSON_AND_ORGANIZATION ( #79, #51 ) ;
#187 = CARTESIAN_POINT ( 'NONE',  ( -2.624913537691384371E-30, 2.733059892324149143, -7.518051173548940402E-16 ) ) ;
#188 = FACE_BOUND ( 'NONE', #195, .T. ) ;
#189 = MANIFOLD_SOLID_BREP ( 'Corps-Déplacer/Copier1[1]', #164 ) ;
#190 = AXIS2_PLACEMENT_3D ( 'NONE', #69, #10, #104 ) ;
#191 = CC_DESIGN_APPROVAL ( #101, ( #176 ) ) ;
#192 = ADVANCED_FACE ( 'NONE', ( #35, #181 ), #129, .T. ) ;
#193 = CC_DESIGN_DATE_AND_TIME_ASSIGNMENT ( #65, #119, ( #221 ) ) ;
#194 = CC_DESIGN_PERSON_AND_ORGANIZATION_ASSIGNMENT ( #206, #228, ( #219 ) ) ;
#195 = EDGE_LOOP ( 'NONE', ( #15 ) ) ;
#196 = CC_DESIGN_APPROVAL ( #234, ( #219 ) ) ;
#197 = EDGE_CURVE ( 'NONE', #240, #240, #83, .T. ) ;
#198 = CARTESIAN_POINT ( 'NONE',  ( 0.0000000000000000000, 0.0000000000000000000, 0.0000000000000000000 ) ) ;
#199 =( NAMED_UNIT ( * ) PLANE_ANGLE_UNIT ( ) SI_UNIT ( $, .RADIAN. ) );
#200 = ORIENTED_EDGE ( 'NONE', *, *, #174, .F. ) ;
#201 = ADVANCED_FACE ( 'NONE', ( #99, #84 ), #171, .T. ) ;
#202 = PRODUCT_DEFINITION_SHAPE ( 'NONE', 'NONE',  #221 ) ;
#203 = APPLICATION_PROTOCOL_DEFINITION ( 'international standard', 'config_control_design', 1994, #139 ) ;
#204 = APPROVAL_DATE_TIME ( #78, #234 ) ;
#205 = ORIENTED_EDGE ( 'NONE', *, *, #144, .T. ) ;
#206 = PERSON_AND_ORGANIZATION ( #79, #51 ) ;
#207 = APPROVAL_PERSON_ORGANIZATION ( #186, #234, #157 ) ;
#208 = APPROVAL_ROLE ( '' ) ;
#209 = CARTESIAN_POINT ( 'NONE',  ( 2.779219145719134403E-13, -7.189289034394536528E-15, 79.60000000000000853 ) ) ;
#210 = EDGE_LOOP ( 'NONE', ( #141 ) ) ;
#211 = DIRECTION ( 'NONE',  ( -3.491481338843133355E-15, 9.031770143711729009E-17, -1.000000000000000000 ) ) ;
#212 = EDGE_CURVE ( 'NONE', #12, #12, #67, .T. ) ;
#213 = CARTESIAN_POINT ( 'NONE',  ( 4.302259675761283313E-14, 6.779115277464045359E-15, 12.32216145020781717 ) ) ;
#214 = FACE_OUTER_BOUND ( 'NONE', #39, .T. ) ;
#215 = DIRECTION ( 'NONE',  ( 3.491481338843133355E-15, -9.031770143711729009E-17, 1.000000000000000000 ) ) ;
#216 = CC_DESIGN_SECURITY_CLASSIFICATION ( #176, ( #219 ) ) ;
#217 = DIRECTION ( 'NONE',  ( -3.491481338843133355E-15, -5.501563426885397460E-16, -1.000000000000000000 ) ) ;
#218 = FACE_OUTER_BOUND ( 'NONE', #42, .T. ) ;
#219 = PRODUCT_DEFINITION_FORMATION_WITH_SPECIFIED_SOURCE ( 'ANY', '', #24, .NOT_KNOWN. ) ;
#220 = CARTESIAN_POINT ( 'NONE',  ( 4.885231259955590439E-14, -1.263712492114123682E-15, 13.99185842870425134 ) ) ;
#221 = PRODUCT_DEFINITION ( 'UNKNOWN', '', #219, #87 ) ;
#222 = DIRECTION ( 'NONE',  ( -3.491481338843133355E-15, 9.031770143711729009E-17, -1.000000000000000000 ) ) ;
#223 = LOCAL_TIME ( 11, 4, 25.00000000000000000, #140 ) ;
#224 = EDGE_LOOP ( 'NONE', ( #158 ) ) ;
#225 = COORDINATED_UNIVERSAL_TIME_OFFSET ( 1, 0, .AHEAD. ) ;
#226 = EDGE_CURVE ( 'NONE', #109, #109, #14, .T. ) ;
#227 = DIRECTION ( 'NONE',  ( 0.0000000000000000000, 1.000000000000000000, 0.0000000000000000000 ) ) ;
#228 = PERSON_AND_ORGANIZATION_ROLE ( 'design_supplier' ) ;
#229 = CARTESIAN_POINT ( 'NONE',  ( 5.249827075382768741E-30, 8.272207075569938057E-31, 1.503610234709788080E-15 ) ) ;
#230 = AXIS2_PLACEMENT_3D ( 'NONE', #237, #217, #242 ) ;
#231 = DATE_AND_TIME ( #25, #26 ) ;
#232 = FACE_BOUND ( 'NONE', #118, .T. ) ;
#233 = PLANE ( 'NONE',  #90 ) ;
#234 = APPROVAL ( #135, 'UNSPECIFIED' ) ;
#235 = AXIS2_PLACEMENT_3D ( 'NONE', #243, #149, #183 ) ;
#236 = CARTESIAN_POINT ( 'NONE',  ( 4.885231259955590439E-14, 1.999999999999990452, 13.99185842870425134 ) ) ;
#237 = CARTESIAN_POINT ( 'NONE',  ( 1.396592535537259061E-15, 2.200625370754168007E-16, 0.4000000000000016320 ) ) ;
#238 = VERTEX_POINT ( 'NONE', #75 ) ;
#239 = CC_DESIGN_PERSON_AND_ORGANIZATION_ASSIGNMENT ( #137, #19, ( #24 ) ) ;
#240 = VERTEX_POINT ( 'NONE', #178 ) ;
#241 = CONICAL_SURFACE ( 'NONE', #170, 1.999999999999995337, 0.7853981633974516097 ) ;
#242 = DIRECTION ( 'NONE',  ( -1.949321806059956487E-30, 1.000000000000000000, -5.486853099623001441E-16 ) ) ;
#243 = CARTESIAN_POINT ( 'NONE',  ( 2.793185071074506684E-13, -7.225416114969383207E-15, 80.00000000000000000 ) ) ;
ENDSEC;
END-ISO-10303-21;
