ISO-10303-21;
HEADER;
FILE_DESCRIPTION (( 'STEP AP203' ),
    '1' );
FILE_NAME ('321495.step',
    '2021-11-26T10:04:25',
    ( '' ),
    ( '' ),
    'SwSTEP 2.0',
    'SolidWorks 2019',
    '' );
FILE_SCHEMA (( 'CONFIG_CONTROL_DESIGN' ));
ENDSEC;

DATA;
#1 = AXIS2_PLACEMENT_3D ( 'NONE', #29, #138, #129 ) ;
#2 = DIRECTION ( 'NONE',  ( -1.918910928675267999E-30, 1.000000000000000000, -5.495979334980720181E-16 ) ) ;
#3 = VERTEX_POINT ( 'NONE', #130 ) ;
#4 =( GEOMETRIC_REPRESENTATION_CONTEXT ( 3 ) GLOBAL_UNCERTAINTY_ASSIGNED_CONTEXT ( ( #168 ) ) GLOBAL_UNIT_ASSIGNED_CONTEXT ( ( #136, #210, #97 ) ) REPRESENTATION_CONTEXT ( 'NONE', 'WORKASPACE' ) );
#5 = CARTESIAN_POINT ( 'NONE',  ( 4.305283387297561449E-14, 2.958999999999998742, 12.33082170424566293 ) ) ;
#6 = PERSON_AND_ORGANIZATION ( #151, #39 ) ;
#7 = APPROVAL_ROLE ( '' ) ;
#8 = COORDINATED_UNIVERSAL_TIME_OFFSET ( 1, 0, .AHEAD. ) ;
#9 = AXIS2_PLACEMENT_3D ( 'NONE', #112, #213, #194 ) ;
#10 = CARTESIAN_POINT ( 'NONE',  ( 4.305283387297562080E-14, 6.776994126986591326E-15, 12.33082170424566471 ) ) ;
#11 = CIRCLE ( 'NONE', #43, 1.999999999999995337 ) ;
#12 = PRODUCT_DEFINITION_SHAPE ( 'NONE', 'NONE',  #92 ) ;
#13 = FACE_OUTER_BOUND ( 'NONE', #119, .T. ) ;
#14 = DIRECTION ( 'NONE',  ( 0.0000000000000000000, 1.000000000000000000, 0.0000000000000000000 ) ) ;
#15 = ADVANCED_FACE ( 'NONE', ( #79, #220 ), #48, .T. ) ;
#16 = CARTESIAN_POINT ( 'NONE',  ( 4.305283387297561449E-14, 2.958999999999998742, 12.33082170424566293 ) ) ;
#17 = VERTEX_POINT ( 'NONE', #36 ) ;
#18 = ORIENTED_EDGE ( 'NONE', *, *, #191, .T. ) ;
#19 = ADVANCED_FACE ( 'NONE', ( #137, #215 ), #41, .T. ) ;
#20 = CARTESIAN_POINT ( 'NONE',  ( 0.0000000000000000000, 0.0000000000000000000, 0.0000000000000000000 ) ) ;
#21 = APPROVAL_ROLE ( '' ) ;
#22 = EDGE_LOOP ( 'NONE', ( #18 ) ) ;
#23 = ADVANCED_BREP_SHAPE_REPRESENTATION ( '321495', ( #83, #78, #202 ), #4 ) ;
#24 = DATE_AND_TIME ( #61, #40 ) ;
#25 = APPROVAL ( #120, 'UNSPECIFIED' ) ;
#26 = APPROVAL_DATE_TIME ( #24, #65 ) ;
#27 = ORIENTED_EDGE ( 'NONE', *, *, #64, .T. ) ;
#28 = AXIS2_PLACEMENT_3D ( 'NONE', #34, #152, #33 ) ;
#29 = CARTESIAN_POINT ( 'NONE',  ( 5.234903941461483783E-30, 8.240320107915683073E-31, 1.499336079280325292E-15 ) ) ;
#30 = EDGE_LOOP ( 'NONE', ( #178 ) ) ;
#31 = PLANE ( 'NONE',  #135 ) ;
#32 = PLANE ( 'NONE',  #66 ) ;
#33 = DIRECTION ( 'NONE',  ( 0.0000000000000000000, 1.000000000000000000, 0.0000000000000000000 ) ) ;
#34 = CARTESIAN_POINT ( 'NONE',  ( 4.305283387297561449E-14, -1.113691473158385372E-15, 12.33082170424566293 ) ) ;
#35 = EDGE_LOOP ( 'NONE', ( #166 ) ) ;
#36 = CARTESIAN_POINT ( 'NONE',  ( 1.396592535537253539E-15, 2.958999999999998742, 0.4000000000000000222 ) ) ;
#37 = CARTESIAN_POINT ( 'NONE',  ( -6.842277657836020854E-46, 2.728059892324149249, 0.0000000000000000000 ) ) ;
#38 = VERTEX_POINT ( 'NONE', #37 ) ;
#39 = ORGANIZATION ( 'UNSPECIFIED', 'UNSPECIFIED', '' ) ;
#40 = LOCAL_TIME ( 11, 4, 25.00000000000000000, #8 ) ;
#41 = CYLINDRICAL_SURFACE ( 'NONE', #193, 2.958999999999995634 ) ;
#42 = DATE_AND_TIME ( #47, #93 ) ;
#43 = AXIS2_PLACEMENT_3D ( 'NONE', #222, #241, #49 ) ;
#44 = PERSON_AND_ORGANIZATION ( #151, #39 ) ;
#45 = CARTESIAN_POINT ( 'NONE',  ( 2.779219145719134403E-13, -7.189289034394536528E-15, 79.60000000000000853 ) ) ;
#46 = APPROVAL_STATUS ( 'not_yet_approved' ) ;
#47 = CALENDAR_DATE ( 2021, 26, 11 ) ;
#48 = CONICAL_SURFACE ( 'NONE', #9, 2.728059892324149249, 0.5235987755982969283 ) ;
#49 = DIRECTION ( 'NONE',  ( 0.0000000000000000000, 1.000000000000000000, 0.0000000000000000000 ) ) ;
#50 = ADVANCED_FACE ( 'NONE', ( #209, #144 ), #197, .T. ) ;
#51 = DIRECTION ( 'NONE',  ( 3.491481338843133355E-15, -9.031770143711729009E-17, 1.000000000000000000 ) ) ;
#52 = CARTESIAN_POINT ( 'NONE',  ( 4.305283387297562080E-14, 2.958999999999998742, 12.33082170424566471 ) ) ;
#53 = CARTESIAN_POINT ( 'NONE',  ( 0.0000000000000000000, 0.0000000000000000000, 0.0000000000000000000 ) ) ;
#54 = DIRECTION ( 'NONE',  ( 3.153425691349006731E-31, 1.000000000000000000, 9.031770143711729009E-17 ) ) ;
#55 = CIRCLE ( 'NONE', #108, 1.999999999999991784 ) ;
#56 = ORIENTED_EDGE ( 'NONE', *, *, #191, .F. ) ;
#57 = AXIS2_PLACEMENT_3D ( 'NONE', #105, #187, #125 ) ;
#58 = CC_DESIGN_SECURITY_CLASSIFICATION ( #230, ( #233 ) ) ;
#59 = PERSON_AND_ORGANIZATION ( #151, #39 ) ;
#60 = EDGE_LOOP ( 'NONE', ( #183 ) ) ;
#61 = CALENDAR_DATE ( 2021, 26, 11 ) ;
#62 = LOCAL_TIME ( 11, 4, 25.00000000000000000, #179 ) ;
#63 = CALENDAR_DATE ( 2021, 26, 11 ) ;
#64 = EDGE_CURVE ( 'NONE', #38, #38, #100, .T. ) ;
#65 = APPROVAL ( #200, 'UNSPECIFIED' ) ;
#66 = AXIS2_PLACEMENT_3D ( 'NONE', #52, #128, #165 ) ;
#67 = FACE_OUTER_BOUND ( 'NONE', #123, .T. ) ;
#68 = CARTESIAN_POINT ( 'NONE',  ( 2.793185071074506684E-13, -7.225416114969383207E-15, 80.00000000000000000 ) ) ;
#69 = DIRECTION ( 'NONE',  ( 0.0000000000000000000, 1.000000000000000000, 0.0000000000000000000 ) ) ;
#70 = CC_DESIGN_DATE_AND_TIME_ASSIGNMENT ( #42, #198, ( #92 ) ) ;
#71 = DATE_AND_TIME ( #236, #234 ) ;
#72 = AXIS2_PLACEMENT_3D ( 'NONE', #53, #89, #54 ) ;
#73 = CARTESIAN_POINT ( 'NONE',  ( 0.0000000000000000000, 0.0000000000000000000, 0.0000000000000000000 ) ) ;
#74 = CC_DESIGN_APPROVAL ( #161, ( #233 ) ) ;
#75 = APPROVAL_DATE_TIME ( #117, #25 ) ;
#76 = EDGE_LOOP ( 'NONE', ( #115 ) ) ;
#77 = DATE_AND_TIME ( #116, #118 ) ;
#78 = MANIFOLD_SOLID_BREP ( 'Corps-Déplacer/Copier1[2]', #211 ) ;
#79 = FACE_OUTER_BOUND ( 'NONE', #76, .T. ) ;
#80 = SHAPE_DEFINITION_REPRESENTATION ( #12, #23 ) ;
#81 = CIRCLE ( 'NONE', #28, 2.959000000000000075 ) ;
#82 = COORDINATED_UNIVERSAL_TIME_OFFSET ( 1, 0, .AHEAD. ) ;
#83 = MANIFOLD_SOLID_BREP ( 'Corps-Déplacer/Copier1[1]', #143 ) ;
#84 = DIRECTION ( 'NONE',  ( -3.491481338843133355E-15, 9.031770143711729009E-17, -1.000000000000000000 ) ) ;
#85 = CC_DESIGN_PERSON_AND_ORGANIZATION_ASSIGNMENT ( #101, #180, ( #233 ) ) ;
#86 = DIRECTION ( 'NONE',  ( 3.491481338843133355E-15, 5.495979334980720181E-16, 1.000000000000000000 ) ) ;
#87 = EDGE_LOOP ( 'NONE', ( #159 ) ) ;
#88 = CARTESIAN_POINT ( 'NONE',  ( -2.617451970730741891E-30, 2.728059892324149249, -7.496680396401626458E-16 ) ) ;
#89 = DIRECTION ( 'NONE',  ( -3.491481338843133355E-15, 9.031770143711729009E-17, -1.000000000000000000 ) ) ;
#90 = APPLICATION_PROTOCOL_DEFINITION ( 'international standard', 'config_control_design', 1994, #160 ) ;
#91 = ADVANCED_FACE ( 'NONE', ( #13 ), #32, .T. ) ;
#92 = PRODUCT_DEFINITION ( 'UNKNOWN', '', #233, #126 ) ;
#93 = LOCAL_TIME ( 11, 4, 25.00000000000000000, #162 ) ;
#94 = VERTEX_POINT ( 'NONE', #171 ) ;
#95 = ORIENTED_EDGE ( 'NONE', *, *, #219, .F. ) ;
#96 = CC_DESIGN_PERSON_AND_ORGANIZATION_ASSIGNMENT ( #59, #235, ( #92 ) ) ;
#97 =( NAMED_UNIT ( * ) SI_UNIT ( $, .STERADIAN. ) SOLID_ANGLE_UNIT ( ) );
#98 = EDGE_LOOP ( 'NONE', ( #176 ) ) ;
#99 = PERSON_AND_ORGANIZATION ( #151, #39 ) ;
#100 = CIRCLE ( 'NONE', #1, 2.728059892324149249 ) ;
#101 = PERSON_AND_ORGANIZATION ( #151, #39 ) ;
#102 = APPROVAL_ROLE ( '' ) ;
#103 = CIRCLE ( 'NONE', #57, 2.958999999999992081 ) ;
#104 = CARTESIAN_POINT ( 'NONE',  ( 1.396592535537259061E-15, 2.198391733992297341E-16, 0.4000000000000016320 ) ) ;
#105 = CARTESIAN_POINT ( 'NONE',  ( 4.305283387297562080E-14, 6.776994126986591326E-15, 12.33082170424566471 ) ) ;
#106 = PLANE ( 'NONE',  #113 ) ;
#107 = ADVANCED_FACE ( 'NONE', ( #225, #207 ), #155, .T. ) ;
#108 = AXIS2_PLACEMENT_3D ( 'NONE', #188, #208, #14 ) ;
#109 = CC_DESIGN_APPROVAL ( #65, ( #230 ) ) ;
#110 = CC_DESIGN_PERSON_AND_ORGANIZATION_ASSIGNMENT ( #174, #232, ( #230 ) ) ;
#111 = VERTEX_POINT ( 'NONE', #16 ) ;
#112 = CARTESIAN_POINT ( 'NONE',  ( 5.234903941461483783E-30, 8.240320107915683073E-31, 1.499336079280325292E-15 ) ) ;
#113 = AXIS2_PLACEMENT_3D ( 'NONE', #88, #243, #189 ) ;
#114 = VERTEX_POINT ( 'NONE', #5 ) ;
#115 = ORIENTED_EDGE ( 'NONE', *, *, #219, .T. ) ;
#116 = CALENDAR_DATE ( 2021, 26, 11 ) ;
#117 = DATE_AND_TIME ( #63, #62 ) ;
#118 = LOCAL_TIME ( 11, 4, 25.00000000000000000, #82 ) ;
#119 = EDGE_LOOP ( 'NONE', ( #214 ) ) ;
#120 = APPROVAL_STATUS ( 'not_yet_approved' ) ;
#121 = PERSON_AND_ORGANIZATION ( #151, #39 ) ;
#122 = DIRECTION ( 'NONE',  ( -3.491481338843133355E-15, 9.031770143711729009E-17, -1.000000000000000000 ) ) ;
#123 = EDGE_LOOP ( 'NONE', ( #56 ) ) ;
#124 = FACE_OUTER_BOUND ( 'NONE', #98, .T. ) ;
#125 = DIRECTION ( 'NONE',  ( -2.082790071659064395E-30, 1.000000000000000000, -5.862532869134206919E-16 ) ) ;
#126 = DESIGN_CONTEXT ( 'detailed design', #132, 'design' ) ;
#127 = APPROVAL_PERSON_ORGANIZATION ( #99, #161, #21 ) ;
#128 = DIRECTION ( 'NONE',  ( -3.491481338843133355E-15, 9.031770143711729009E-17, -1.000000000000000000 ) ) ;
#129 = DIRECTION ( 'NONE',  ( -1.918910928675267999E-30, 1.000000000000000000, -5.495979334980720181E-16 ) ) ;
#130 = CARTESIAN_POINT ( 'NONE',  ( 4.885231259955590439E-14, 1.999999999999990452, 13.99185842870425134 ) ) ;
#131 = CC_DESIGN_DATE_AND_TIME_ASSIGNMENT ( #77, #141, ( #230 ) ) ;
#132 = APPLICATION_CONTEXT ( 'configuration controlled 3d designs of mechanical parts and assemblies' ) ;
#133 = CARTESIAN_POINT ( 'NONE',  ( 2.793185071074506684E-13, 1.599999999999987876, 80.00000000000000000 ) ) ;
#134 = EDGE_LOOP ( 'NONE', ( #95 ) ) ;
#135 = AXIS2_PLACEMENT_3D ( 'NONE', #10, #86, #164 ) ;
#136 =( LENGTH_UNIT ( ) NAMED_UNIT ( * ) SI_UNIT ( .MILLI., .METRE. ) );
#137 = FACE_OUTER_BOUND ( 'NONE', #173, .T. ) ;
#138 = DIRECTION ( 'NONE',  ( -3.491481338843133355E-15, -5.495979334980720181E-16, -1.000000000000000000 ) ) ;
#139 = EDGE_CURVE ( 'NONE', #114, #114, #81, .T. ) ;
#140 = CC_DESIGN_PERSON_AND_ORGANIZATION_ASSIGNMENT ( #121, #199, ( #233 ) ) ;
#141 = DATE_TIME_ROLE ( 'classification_date' ) ;
#142 = DIRECTION ( 'NONE',  ( 0.0000000000000000000, 0.0000000000000000000, 1.000000000000000000 ) ) ;
#143 = CLOSED_SHELL ( 'NONE', ( #237, #50, #107, #203, #91 ) ) ;
#144 = FACE_OUTER_BOUND ( 'NONE', #172, .T. ) ;
#145 = DIRECTION ( 'NONE',  ( 1.000000000000000000, 0.0000000000000000000, 0.0000000000000000000 ) ) ;
#146 = ORIENTED_EDGE ( 'NONE', *, *, #158, .T. ) ;
#147 = ORIENTED_EDGE ( 'NONE', *, *, #184, .T. ) ;
#148 = DIRECTION ( 'NONE',  ( -3.491481338843133355E-15, 9.031770143711729009E-17, -1.000000000000000000 ) ) ;
#149 = CONICAL_SURFACE ( 'NONE', #229, 2.959000000000000075, 0.5235987755982931535 ) ;
#150 = PLANE ( 'NONE',  #186 ) ;
#151 = PERSON ( 'UNSPECIFIED', 'UNSPECIFIED', 'UNSPECIFIED', ('UNSPECIFIED'), ('UNSPECIFIED'), ('UNSPECIFIED') ) ;
#152 = DIRECTION ( 'NONE',  ( -3.491481338843133355E-15, 9.031770143711729009E-17, -1.000000000000000000 ) ) ;
#153 = DIRECTION ( 'NONE',  ( -1.887528502441022762E-30, 1.000000000000000000, -5.496124564813306230E-16 ) ) ;
#154 = CIRCLE ( 'NONE', #240, 1.599999999999994982 ) ;
#155 = CYLINDRICAL_SURFACE ( 'NONE', #72, 1.999999999999993561 ) ;
#156 = ORIENTED_EDGE ( 'NONE', *, *, #226, .F. ) ;
#157 = APPLICATION_PROTOCOL_DEFINITION ( 'international standard', 'config_control_design', 1994, #132 ) ;
#158 = EDGE_CURVE ( 'NONE', #3, #3, #55, .T. ) ;
#159 = ORIENTED_EDGE ( 'NONE', *, *, #139, .F. ) ;
#160 = APPLICATION_CONTEXT ( 'configuration controlled 3d designs of mechanical parts and assemblies' ) ;
#161 = APPROVAL ( #46, 'UNSPECIFIED' ) ;
#162 = COORDINATED_UNIVERSAL_TIME_OFFSET ( 1, 0, .AHEAD. ) ;
#163 = FACE_BOUND ( 'NONE', #231, .T. ) ;
#164 = DIRECTION ( 'NONE',  ( 1.918910928675267999E-30, -1.000000000000000000, 5.495979334980720181E-16 ) ) ;
#165 = DIRECTION ( 'NONE',  ( 3.153425691349006731E-31, 1.000000000000000000, 9.031770143711729009E-17 ) ) ;
#166 = ORIENTED_EDGE ( 'NONE', *, *, #64, .F. ) ;
#167 = FACE_OUTER_BOUND ( 'NONE', #201, .T. ) ;
#168 = UNCERTAINTY_MEASURE_WITH_UNIT (LENGTH_MEASURE( 1.000000000000000082E-05 ), #136, 'distance_accuracy_value', 'NONE');
#169 = APPROVAL_PERSON_ORGANIZATION ( #6, #25, #102 ) ;
#170 = PRODUCT_RELATED_PRODUCT_CATEGORY ( 'detail', '', ( #239 ) ) ;
#171 = CARTESIAN_POINT ( 'NONE',  ( 2.779219145719134403E-13, 1.999999999999988010, 79.60000000000000853 ) ) ;
#172 = EDGE_LOOP ( 'NONE', ( #156 ) ) ;
#173 = EDGE_LOOP ( 'NONE', ( #147 ) ) ;
#174 = PERSON_AND_ORGANIZATION ( #151, #39 ) ;
#175 = APPROVAL_DATE_TIME ( #71, #161 ) ;
#176 = ORIENTED_EDGE ( 'NONE', *, *, #184, .F. ) ;
#177 = SECURITY_CLASSIFICATION_LEVEL ( 'unclassified' ) ;
#178 = ORIENTED_EDGE ( 'NONE', *, *, #158, .F. ) ;
#179 = COORDINATED_UNIVERSAL_TIME_OFFSET ( 1, 0, .AHEAD. ) ;
#180 = PERSON_AND_ORGANIZATION_ROLE ( 'design_supplier' ) ;
#181 = AXIS2_PLACEMENT_3D ( 'NONE', #45, #122, #182 ) ;
#182 = DIRECTION ( 'NONE',  ( 0.0000000000000000000, 1.000000000000000000, 0.0000000000000000000 ) ) ;
#183 = ORIENTED_EDGE ( 'NONE', *, *, #226, .T. ) ;
#184 = EDGE_CURVE ( 'NONE', #111, #111, #103, .T. ) ;
#185 = ADVANCED_FACE ( 'NONE', ( #167 ), #106, .T. ) ;
#186 = AXIS2_PLACEMENT_3D ( 'NONE', #223, #51, #205 ) ;
#187 = DIRECTION ( 'NONE',  ( -3.491481338843133355E-15, -5.495979334980720181E-16, -1.000000000000000000 ) ) ;
#188 = CARTESIAN_POINT ( 'NONE',  ( 4.885231259955590439E-14, -1.263712492114123682E-15, 13.99185842870425134 ) ) ;
#189 = DIRECTION ( 'NONE',  ( -1.918910928675267999E-30, 1.000000000000000000, -5.495979334980720181E-16 ) ) ;
#190 = DIRECTION ( 'NONE',  ( -3.491481338843133355E-15, -5.495979334980720181E-16, -1.000000000000000000 ) ) ;
#191 = EDGE_CURVE ( 'NONE', #192, #192, #154, .T. ) ;
#192 = VERTEX_POINT ( 'NONE', #133 ) ;
#193 = AXIS2_PLACEMENT_3D ( 'NONE', #73, #190, #2 ) ;
#194 = DIRECTION ( 'NONE',  ( 1.918910928675267649E-30, -1.000000000000000000, 5.495979334980720181E-16 ) ) ;
#195 = COORDINATED_UNIVERSAL_TIME_OFFSET ( 1, 0, .AHEAD. ) ;
#196 = PERSON_AND_ORGANIZATION ( #151, #39 ) ;
#197 = CONICAL_SURFACE ( 'NONE', #181, 1.999999999999995337, 0.7853981633974516097 ) ;
#198 = DATE_TIME_ROLE ( 'creation_date' ) ;
#199 = PERSON_AND_ORGANIZATION_ROLE ( 'creator' ) ;
#200 = APPROVAL_STATUS ( 'not_yet_approved' ) ;
#201 = EDGE_LOOP ( 'NONE', ( #27 ) ) ;
#202 = AXIS2_PLACEMENT_3D ( 'NONE', #20, #142, #145 ) ;
#203 = ADVANCED_FACE ( 'NONE', ( #163, #224 ), #149, .T. ) ;
#204 = DIRECTION ( 'NONE',  ( -3.491481338843133355E-15, -5.495979334980720181E-16, -1.000000000000000000 ) ) ;
#205 = DIRECTION ( 'NONE',  ( -3.153425691349006731E-31, -1.000000000000000000, -9.031770143711729009E-17 ) ) ;
#206 = CC_DESIGN_APPROVAL ( #25, ( #92 ) ) ;
#207 = FACE_OUTER_BOUND ( 'NONE', #30, .T. ) ;
#208 = DIRECTION ( 'NONE',  ( -3.491481338843133355E-15, 9.031770143711729009E-17, -1.000000000000000000 ) ) ;
#209 = FACE_BOUND ( 'NONE', #22, .T. ) ;
#210 =( NAMED_UNIT ( * ) PLANE_ANGLE_UNIT ( ) SI_UNIT ( $, .RADIAN. ) );
#211 = CLOSED_SHELL ( 'NONE', ( #227, #19, #15, #185 ) ) ;
#212 = APPROVAL_PERSON_ORGANIZATION ( #196, #65, #7 ) ;
#213 = DIRECTION ( 'NONE',  ( 3.491481338843133355E-15, 5.495979334980720181E-16, 1.000000000000000000 ) ) ;
#214 = ORIENTED_EDGE ( 'NONE', *, *, #139, .T. ) ;
#215 = FACE_OUTER_BOUND ( 'NONE', #134, .T. ) ;
#216 = PERSON_AND_ORGANIZATION_ROLE ( 'design_owner' ) ;
#217 = CIRCLE ( 'NONE', #228, 2.958999999999998742 ) ;
#218 = MECHANICAL_CONTEXT ( 'NONE', #160, 'mechanical' ) ;
#219 = EDGE_CURVE ( 'NONE', #17, #17, #217, .T. ) ;
#220 = FACE_BOUND ( 'NONE', #35, .T. ) ;
#221 = CC_DESIGN_PERSON_AND_ORGANIZATION_ASSIGNMENT ( #44, #216, ( #239 ) ) ;
#222 = CARTESIAN_POINT ( 'NONE',  ( 2.779219145719134403E-13, -7.189289034394536528E-15, 79.60000000000000853 ) ) ;
#223 = CARTESIAN_POINT ( 'NONE',  ( 2.793185071074506684E-13, -7.225416114969383207E-15, 80.00000000000000000 ) ) ;
#224 = FACE_OUTER_BOUND ( 'NONE', #87, .T. ) ;
#225 = FACE_OUTER_BOUND ( 'NONE', #60, .T. ) ;
#226 = EDGE_CURVE ( 'NONE', #94, #94, #11, .T. ) ;
#227 = ADVANCED_FACE ( 'NONE', ( #124 ), #31, .T. ) ;
#228 = AXIS2_PLACEMENT_3D ( 'NONE', #104, #204, #153 ) ;
#229 = AXIS2_PLACEMENT_3D ( 'NONE', #238, #148, #69 ) ;
#230 = SECURITY_CLASSIFICATION ( '', '', #177 ) ;
#231 = EDGE_LOOP ( 'NONE', ( #146 ) ) ;
#232 = PERSON_AND_ORGANIZATION_ROLE ( 'classification_officer' ) ;
#233 = PRODUCT_DEFINITION_FORMATION_WITH_SPECIFIED_SOURCE ( 'ANY', '', #239, .NOT_KNOWN. ) ;
#234 = LOCAL_TIME ( 11, 4, 25.00000000000000000, #195 ) ;
#235 = PERSON_AND_ORGANIZATION_ROLE ( 'creator' ) ;
#236 = CALENDAR_DATE ( 2021, 26, 11 ) ;
#237 = ADVANCED_FACE ( 'NONE', ( #67 ), #150, .T. ) ;
#238 = CARTESIAN_POINT ( 'NONE',  ( 4.305283387297561449E-14, -1.113691473158385372E-15, 12.33082170424566293 ) ) ;
#239 = PRODUCT ( '321495', '321495', '', ( #218 ) ) ;
#240 = AXIS2_PLACEMENT_3D ( 'NONE', #68, #84, #242 ) ;
#241 = DIRECTION ( 'NONE',  ( -3.491481338843133355E-15, 9.031770143711729009E-17, -1.000000000000000000 ) ) ;
#242 = DIRECTION ( 'NONE',  ( 0.0000000000000000000, 1.000000000000000000, 0.0000000000000000000 ) ) ;
#243 = DIRECTION ( 'NONE',  ( -3.491481338843133355E-15, -5.495979334980720181E-16, -1.000000000000000000 ) ) ;
ENDSEC;
END-ISO-10303-21;
