ISO-10303-21;
HEADER;
FILE_DESCRIPTION (( 'STEP AP203' ),
    '1' );
FILE_NAME ('321494.step',
    '2021-11-26T10:04:24',
    ( '' ),
    ( '' ),
    'SwSTEP 2.0',
    'SolidWorks 2019',
    '' );
FILE_SCHEMA (( 'CONFIG_CONTROL_DESIGN' ));
ENDSEC;

DATA;
#1 = ORIENTED_EDGE ( 'NONE', *, *, #61, .F. ) ;
#2 = AXIS2_PLACEMENT_3D ( 'NONE', #227, #143, #205 ) ;
#3 = COORDINATED_UNIVERSAL_TIME_OFFSET ( 1, 0, .AHEAD. ) ;
#4 = CIRCLE ( 'NONE', #24, 1.999999999999991784 ) ;
#5 = EDGE_LOOP ( 'NONE', ( #107 ) ) ;
#6 = PERSON_AND_ORGANIZATION ( #118, #68 ) ;
#7 = ADVANCED_FACE ( 'NONE', ( #172 ), #159, .T. ) ;
#8 = ADVANCED_BREP_SHAPE_REPRESENTATION ( '321494', ( #202, #55, #236 ), #84 ) ;
#9 = DIRECTION ( 'NONE',  ( 3.153425691349006731E-31, 1.000000000000000000, 9.031770143711729009E-17 ) ) ;
#10 = ADVANCED_FACE ( 'NONE', ( #206 ), #190, .T. ) ;
#11 = DIRECTION ( 'NONE',  ( 1.916963990099692051E-30, -1.000000000000000000, 5.490403081274547254E-16 ) ) ;
#12 = DIRECTION ( 'NONE',  ( 0.0000000000000000000, 1.000000000000000000, 0.0000000000000000000 ) ) ;
#13 = EDGE_LOOP ( 'NONE', ( #90 ) ) ;
#14 = DIRECTION ( 'NONE',  ( -1.916963990099692051E-30, 1.000000000000000000, -5.490403081274547254E-16 ) ) ;
#15 = DIRECTION ( 'NONE',  ( -3.491481338843133355E-15, 9.031770143711729009E-17, -1.000000000000000000 ) ) ;
#16 = CONICAL_SURFACE ( 'NONE', #207, 2.954000000000000181, 0.5235987755982932645 ) ;
#17 = DATE_AND_TIME ( #115, #21 ) ;
#18 = CARTESIAN_POINT ( 'NONE',  ( 4.308307098833838953E-14, 2.953999999999998849, 12.33948195828350691 ) ) ;
#19 = DESIGN_CONTEXT ( 'detailed design', #221, 'design' ) ;
#20 = ADVANCED_FACE ( 'NONE', ( #108, #177 ), #175, .T. ) ;
#21 = LOCAL_TIME ( 11, 4, 24.00000000000000000, #180 ) ;
#22 = APPROVAL_ROLE ( '' ) ;
#23 = ORIENTED_EDGE ( 'NONE', *, *, #98, .T. ) ;
#24 = AXIS2_PLACEMENT_3D ( 'NONE', #30, #157, #65 ) ;
#25 = SECURITY_CLASSIFICATION ( '', '', #62 ) ;
#26 = CONICAL_SURFACE ( 'NONE', #176, 2.723059892324148912, 0.5235987755982969283 ) ;
#27 = FACE_BOUND ( 'NONE', #125, .T. ) ;
#28 = LOCAL_TIME ( 11, 4, 24.00000000000000000, #82 ) ;
#29 = CARTESIAN_POINT ( 'NONE',  ( 4.308307098833839584E-14, 6.774872976509145971E-15, 12.33948195828350869 ) ) ;
#30 = CARTESIAN_POINT ( 'NONE',  ( 4.885231259955590439E-14, -1.263712492114123682E-15, 13.99185842870425134 ) ) ;
#31 = AXIS2_PLACEMENT_3D ( 'NONE', #134, #15, #163 ) ;
#32 = DIRECTION ( 'NONE',  ( -3.491481338843133355E-15, 9.031770143711729009E-17, -1.000000000000000000 ) ) ;
#33 = CC_DESIGN_SECURITY_CLASSIFICATION ( #25, ( #124 ) ) ;
#34 = CARTESIAN_POINT ( 'NONE',  ( 2.779219145719134403E-13, 1.999999999999988010, 79.60000000000000853 ) ) ;
#35 = APPROVAL_STATUS ( 'not_yet_approved' ) ;
#36 = ADVANCED_FACE ( 'NONE', ( #130, #71 ), #16, .T. ) ;
#37 = FACE_BOUND ( 'NONE', #100, .T. ) ;
#38 = AXIS2_PLACEMENT_3D ( 'NONE', #29, #229, #129 ) ;
#39 = CC_DESIGN_APPROVAL ( #63, ( #161 ) ) ;
#40 = APPROVAL_STATUS ( 'not_yet_approved' ) ;
#41 = CC_DESIGN_PERSON_AND_ORGANIZATION_ASSIGNMENT ( #222, #97, ( #124 ) ) ;
#42 = COORDINATED_UNIVERSAL_TIME_OFFSET ( 1, 0, .AHEAD. ) ;
#43 = PERSON_AND_ORGANIZATION ( #118, #68 ) ;
#44 = APPROVAL_PERSON_ORGANIZATION ( #194, #63, #112 ) ;
#45 = CC_DESIGN_APPROVAL ( #228, ( #124 ) ) ;
#46 = CARTESIAN_POINT ( 'NONE',  ( 2.793185071074506684E-13, -7.225416114969383207E-15, 80.00000000000000000 ) ) ;
#47 = CIRCLE ( 'NONE', #54, 2.723059892324148912 ) ;
#48 = EDGE_LOOP ( 'NONE', ( #1 ) ) ;
#49 = FACE_OUTER_BOUND ( 'NONE', #224, .T. ) ;
#50 = ADVANCED_FACE ( 'NONE', ( #146 ), #189, .T. ) ;
#51 = DIRECTION ( 'NONE',  ( 0.0000000000000000000, 1.000000000000000000, 0.0000000000000000000 ) ) ;
#52 = DIRECTION ( 'NONE',  ( -3.491481338843133355E-15, -5.490403081274547254E-16, -1.000000000000000000 ) ) ;
#53 = ADVANCED_FACE ( 'NONE', ( #211 ), #72, .T. ) ;
#54 = AXIS2_PLACEMENT_3D ( 'NONE', #88, #230, #69 ) ;
#55 = MANIFOLD_SOLID_BREP ( 'Corps-Déplacer/Copier1[2]', #77 ) ;
#56 = FACE_OUTER_BOUND ( 'NONE', #48, .T. ) ;
#57 = UNCERTAINTY_MEASURE_WITH_UNIT (LENGTH_MEASURE( 1.000000000000000082E-05 ), #116, 'distance_accuracy_value', 'NONE');
#58 = DATE_TIME_ROLE ( 'classification_date' ) ;
#59 = ORIENTED_EDGE ( 'NONE', *, *, #152, .F. ) ;
#60 = AXIS2_PLACEMENT_3D ( 'NONE', #86, #91, #14 ) ;
#61 = EDGE_CURVE ( 'NONE', #241, #241, #4, .T. ) ;
#62 = SECURITY_CLASSIFICATION_LEVEL ( 'unclassified' ) ;
#63 = APPROVAL ( #35, 'UNSPECIFIED' ) ;
#64 = COORDINATED_UNIVERSAL_TIME_OFFSET ( 1, 0, .AHEAD. ) ;
#65 = DIRECTION ( 'NONE',  ( 0.0000000000000000000, 1.000000000000000000, 0.0000000000000000000 ) ) ;
#66 = FACE_OUTER_BOUND ( 'NONE', #121, .T. ) ;
#67 = CIRCLE ( 'NONE', #200, 1.599999999999994982 ) ;
#68 = ORGANIZATION ( 'UNSPECIFIED', 'UNSPECIFIED', '' ) ;
#69 = DIRECTION ( 'NONE',  ( -1.916963990099692051E-30, 1.000000000000000000, -5.490403081274547254E-16 ) ) ;
#70 = APPROVAL_PERSON_ORGANIZATION ( #169, #228, #218 ) ;
#71 = FACE_OUTER_BOUND ( 'NONE', #5, .T. ) ;
#72 = PLANE ( 'NONE',  #113 ) ;
#73 = EDGE_CURVE ( 'NONE', #238, #238, #83, .T. ) ;
#74 = APPLICATION_PROTOCOL_DEFINITION ( 'international standard', 'config_control_design', 1994, #221 ) ;
#75 = CARTESIAN_POINT ( 'NONE',  ( 1.396592535537259061E-15, 2.196161232509828023E-16, 0.4000000000000016320 ) ) ;
#76 = CIRCLE ( 'NONE', #132, 2.953999999999998405 ) ;
#77 = CLOSED_SHELL ( 'NONE', ( #7, #20, #95, #53 ) ) ;
#78 = LOCAL_TIME ( 11, 4, 24.00000000000000000, #64 ) ;
#79 = SHAPE_DEFINITION_REPRESENTATION ( #240, #8 ) ;
#80 = CALENDAR_DATE ( 2021, 26, 11 ) ;
#81 = EDGE_LOOP ( 'NONE', ( #23 ) ) ;
#82 = COORDINATED_UNIVERSAL_TIME_OFFSET ( 1, 0, .AHEAD. ) ;
#83 = CIRCLE ( 'NONE', #2, 1.999999999999995337 ) ;
#84 =( GEOMETRIC_REPRESENTATION_CONTEXT ( 3 ) GLOBAL_UNCERTAINTY_ASSIGNED_CONTEXT ( ( #57 ) ) GLOBAL_UNIT_ASSIGNED_CONTEXT ( ( #116, #110, #217 ) ) REPRESENTATION_CONTEXT ( 'NONE', 'WORKASPACE' ) );
#85 = CARTESIAN_POINT ( 'NONE',  ( -2.610003878235069146E-30, 2.723059892324148912, -7.475348211655821803E-16 ) ) ;
#86 = CARTESIAN_POINT ( 'NONE',  ( 0.0000000000000000000, 0.0000000000000000000, 0.0000000000000000000 ) ) ;
#87 = EDGE_CURVE ( 'NONE', #150, #150, #67, .T. ) ;
#88 = CARTESIAN_POINT ( 'NONE',  ( 5.220007756470138293E-30, 8.208534970975059827E-31, 1.495069642331164361E-15 ) ) ;
#89 = AXIS2_PLACEMENT_3D ( 'NONE', #139, #93, #96 ) ;
#90 = ORIENTED_EDGE ( 'NONE', *, *, #73, .F. ) ;
#91 = DIRECTION ( 'NONE',  ( -3.491481338843133355E-15, -5.490403081274547254E-16, -1.000000000000000000 ) ) ;
#92 = CARTESIAN_POINT ( 'NONE',  ( 0.0000000000000000000, 0.0000000000000000000, 0.0000000000000000000 ) ) ;
#93 = DIRECTION ( 'NONE',  ( -3.491481338843133355E-15, 9.031770143711729009E-17, -1.000000000000000000 ) ) ;
#94 = APPROVAL_DATE_TIME ( #17, #63 ) ;
#95 = ADVANCED_FACE ( 'NONE', ( #66, #27 ), #26, .T. ) ;
#96 = DIRECTION ( 'NONE',  ( 3.153425691349006731E-31, 1.000000000000000000, 9.031770143711729009E-17 ) ) ;
#97 = PERSON_AND_ORGANIZATION_ROLE ( 'design_supplier' ) ;
#98 = EDGE_CURVE ( 'NONE', #213, #213, #101, .T. ) ;
#99 = ORIENTED_EDGE ( 'NONE', *, *, #149, .T. ) ;
#100 = EDGE_LOOP ( 'NONE', ( #142 ) ) ;
#101 = CIRCLE ( 'NONE', #38, 2.953999999999991743 ) ;
#102 = DATE_TIME_ROLE ( 'creation_date' ) ;
#103 = CARTESIAN_POINT ( 'NONE',  ( 2.793185071074506684E-13, -7.225416114969383207E-15, 80.00000000000000000 ) ) ;
#104 = CLOSED_SHELL ( 'NONE', ( #50, #197, #155, #36, #10 ) ) ;
#105 = CARTESIAN_POINT ( 'NONE',  ( 5.220007756470138293E-30, 8.208534970975059827E-31, 1.495069642331164361E-15 ) ) ;
#106 = CARTESIAN_POINT ( 'NONE',  ( 4.308307098833838953E-14, -1.114473647396945260E-15, 12.33948195828350691 ) ) ;
#107 = ORIENTED_EDGE ( 'NONE', *, *, #149, .F. ) ;
#108 = FACE_OUTER_BOUND ( 'NONE', #81, .T. ) ;
#109 = CC_DESIGN_PERSON_AND_ORGANIZATION_ASSIGNMENT ( #212, #135, ( #231 ) ) ;
#110 =( NAMED_UNIT ( * ) PLANE_ANGLE_UNIT ( ) SI_UNIT ( $, .RADIAN. ) );
#111 = CARTESIAN_POINT ( 'NONE',  ( 2.793185071074506684E-13, 1.599999999999987876, 80.00000000000000000 ) ) ;
#112 = APPROVAL_ROLE ( '' ) ;
#113 = AXIS2_PLACEMENT_3D ( 'NONE', #85, #52, #208 ) ;
#114 = CC_DESIGN_PERSON_AND_ORGANIZATION_ASSIGNMENT ( #6, #182, ( #25 ) ) ;
#115 = CALENDAR_DATE ( 2021, 26, 11 ) ;
#116 =( LENGTH_UNIT ( ) NAMED_UNIT ( * ) SI_UNIT ( .MILLI., .METRE. ) );
#117 = PERSON_AND_ORGANIZATION_ROLE ( 'creator' ) ;
#118 = PERSON ( 'UNSPECIFIED', 'UNSPECIFIED', 'UNSPECIFIED', ('UNSPECIFIED'), ('UNSPECIFIED'), ('UNSPECIFIED') ) ;
#119 = DATE_AND_TIME ( #220, #78 ) ;
#120 = ORIENTED_EDGE ( 'NONE', *, *, #152, .T. ) ;
#121 = EDGE_LOOP ( 'NONE', ( #183 ) ) ;
#122 = CALENDAR_DATE ( 2021, 26, 11 ) ;
#123 = PERSON_AND_ORGANIZATION_ROLE ( 'creator' ) ;
#124 = PRODUCT_DEFINITION_FORMATION_WITH_SPECIFIED_SOURCE ( 'ANY', '', #231, .NOT_KNOWN. ) ;
#125 = EDGE_LOOP ( 'NONE', ( #59 ) ) ;
#126 = DIRECTION ( 'NONE',  ( -3.491481338843133355E-15, 9.031770143711729009E-17, -1.000000000000000000 ) ) ;
#127 = CC_DESIGN_DATE_AND_TIME_ASSIGNMENT ( #156, #58, ( #25 ) ) ;
#128 = AXIS2_PLACEMENT_3D ( 'NONE', #103, #147, #162 ) ;
#129 = DIRECTION ( 'NONE',  ( -2.086315444156794963E-30, 1.000000000000000000, -5.872455910551157908E-16 ) ) ;
#130 = FACE_BOUND ( 'NONE', #154, .T. ) ;
#131 = EDGE_LOOP ( 'NONE', ( #120 ) ) ;
#132 = AXIS2_PLACEMENT_3D ( 'NONE', #75, #181, #193 ) ;
#133 = LOCAL_TIME ( 11, 4, 24.00000000000000000, #3 ) ;
#134 = CARTESIAN_POINT ( 'NONE',  ( 2.779219145719134403E-13, -7.189289034394536528E-15, 79.60000000000000853 ) ) ;
#135 = PERSON_AND_ORGANIZATION_ROLE ( 'design_owner' ) ;
#136 = LOCAL_TIME ( 11, 4, 24.00000000000000000, #42 ) ;
#137 = CC_DESIGN_APPROVAL ( #174, ( #25 ) ) ;
#138 = CARTESIAN_POINT ( 'NONE',  ( 0.0000000000000000000, 2.723059892324148912, 0.0000000000000000000 ) ) ;
#139 = CARTESIAN_POINT ( 'NONE',  ( 0.0000000000000000000, 0.0000000000000000000, 0.0000000000000000000 ) ) ;
#140 = EDGE_LOOP ( 'NONE', ( #168 ) ) ;
#141 = PERSON_AND_ORGANIZATION ( #118, #68 ) ;
#142 = ORIENTED_EDGE ( 'NONE', *, *, #87, .T. ) ;
#143 = DIRECTION ( 'NONE',  ( -3.491481338843133355E-15, 9.031770143711729009E-17, -1.000000000000000000 ) ) ;
#144 = DIRECTION ( 'NONE',  ( 0.0000000000000000000, 1.000000000000000000, 0.0000000000000000000 ) ) ;
#145 = CARTESIAN_POINT ( 'NONE',  ( 4.308307098833838953E-14, 6.774872976509145182E-15, 12.33948195828350691 ) ) ;
#146 = FACE_OUTER_BOUND ( 'NONE', #204, .T. ) ;
#147 = DIRECTION ( 'NONE',  ( 3.491481338843133355E-15, -9.031770143711729009E-17, 1.000000000000000000 ) ) ;
#148 = MECHANICAL_CONTEXT ( 'NONE', #226, 'mechanical' ) ;
#149 = EDGE_CURVE ( 'NONE', #178, #178, #171, .T. ) ;
#150 = VERTEX_POINT ( 'NONE', #111 ) ;
#151 = CARTESIAN_POINT ( 'NONE',  ( 4.885231259955590439E-14, 1.999999999999990452, 13.99185842870425134 ) ) ;
#152 = EDGE_CURVE ( 'NONE', #198, #198, #47, .T. ) ;
#153 = CYLINDRICAL_SURFACE ( 'NONE', #89, 1.999999999999993561 ) ;
#154 = EDGE_LOOP ( 'NONE', ( #235 ) ) ;
#155 = ADVANCED_FACE ( 'NONE', ( #49, #56 ), #153, .T. ) ;
#156 = DATE_AND_TIME ( #122, #28 ) ;
#157 = DIRECTION ( 'NONE',  ( -3.491481338843133355E-15, 9.031770143711729009E-17, -1.000000000000000000 ) ) ;
#158 = CARTESIAN_POINT ( 'NONE',  ( 4.308307098833838953E-14, -1.114473647396945260E-15, 12.33948195828350691 ) ) ;
#159 = PLANE ( 'NONE',  #195 ) ;
#160 = DIRECTION ( 'NONE',  ( -3.491481338843133355E-15, 9.031770143711729009E-17, -1.000000000000000000 ) ) ;
#161 = PRODUCT_DEFINITION ( 'UNKNOWN', '', #124, #19 ) ;
#162 = DIRECTION ( 'NONE',  ( -3.153425691349006731E-31, -1.000000000000000000, -9.031770143711729009E-17 ) ) ;
#163 = DIRECTION ( 'NONE',  ( 0.0000000000000000000, 1.000000000000000000, 0.0000000000000000000 ) ) ;
#164 = PRODUCT_RELATED_PRODUCT_CATEGORY ( 'detail', '', ( #231 ) ) ;
#165 = FACE_OUTER_BOUND ( 'NONE', #13, .T. ) ;
#166 = DIRECTION ( 'NONE',  ( 0.0000000000000000000, 0.0000000000000000000, 1.000000000000000000 ) ) ;
#167 = ORIENTED_EDGE ( 'NONE', *, *, #234, .F. ) ;
#168 = ORIENTED_EDGE ( 'NONE', *, *, #98, .F. ) ;
#169 = PERSON_AND_ORGANIZATION ( #118, #68 ) ;
#170 = ORIENTED_EDGE ( 'NONE', *, *, #73, .T. ) ;
#171 = CIRCLE ( 'NONE', #191, 2.954000000000000181 ) ;
#172 = FACE_OUTER_BOUND ( 'NONE', #140, .T. ) ;
#173 = DIRECTION ( 'NONE',  ( -3.491481338843133355E-15, 9.031770143711729009E-17, -1.000000000000000000 ) ) ;
#174 = APPROVAL ( #225, 'UNSPECIFIED' ) ;
#175 = CYLINDRICAL_SURFACE ( 'NONE', #60, 2.953999999999994852 ) ;
#176 = AXIS2_PLACEMENT_3D ( 'NONE', #105, #188, #11 ) ;
#177 = FACE_OUTER_BOUND ( 'NONE', #219, .T. ) ;
#178 = VERTEX_POINT ( 'NONE', #237 ) ;
#179 = VERTEX_POINT ( 'NONE', #214 ) ;
#180 = COORDINATED_UNIVERSAL_TIME_OFFSET ( 1, 0, .AHEAD. ) ;
#181 = DIRECTION ( 'NONE',  ( -3.491481338843133355E-15, -5.490403081274547254E-16, -1.000000000000000000 ) ) ;
#182 = PERSON_AND_ORGANIZATION_ROLE ( 'classification_officer' ) ;
#183 = ORIENTED_EDGE ( 'NONE', *, *, #234, .T. ) ;
#184 = ORIENTED_EDGE ( 'NONE', *, *, #87, .F. ) ;
#185 = APPROVAL_DATE_TIME ( #119, #174 ) ;
#186 = CC_DESIGN_PERSON_AND_ORGANIZATION_ASSIGNMENT ( #216, #117, ( #161 ) ) ;
#187 = DIRECTION ( 'NONE',  ( 1.916963990099692051E-30, -1.000000000000000000, 5.490403081274547254E-16 ) ) ;
#188 = DIRECTION ( 'NONE',  ( 3.491481338843133355E-15, 5.490403081274547254E-16, 1.000000000000000000 ) ) ;
#189 = PLANE ( 'NONE',  #128 ) ;
#190 = PLANE ( 'NONE',  #215 ) ;
#191 = AXIS2_PLACEMENT_3D ( 'NONE', #106, #173, #12 ) ;
#192 = DIRECTION ( 'NONE',  ( 3.491481338843133355E-15, 5.490403081274547254E-16, 1.000000000000000000 ) ) ;
#193 = DIRECTION ( 'NONE',  ( -1.890723371267090936E-30, 1.000000000000000000, -5.505427416141698151E-16 ) ) ;
#194 = PERSON_AND_ORGANIZATION ( #118, #68 ) ;
#195 = AXIS2_PLACEMENT_3D ( 'NONE', #145, #192, #187 ) ;
#196 = APPLICATION_PROTOCOL_DEFINITION ( 'international standard', 'config_control_design', 1994, #226 ) ;
#197 = ADVANCED_FACE ( 'NONE', ( #37, #165 ), #242, .T. ) ;
#198 = VERTEX_POINT ( 'NONE', #138 ) ;
#199 = CALENDAR_DATE ( 2021, 26, 11 ) ;
#200 = AXIS2_PLACEMENT_3D ( 'NONE', #46, #126, #144 ) ;
#201 = APPROVAL_DATE_TIME ( #223, #228 ) ;
#202 = MANIFOLD_SOLID_BREP ( 'Corps-Déplacer/Copier1[1]', #104 ) ;
#203 = DATE_AND_TIME ( #80, #133 ) ;
#204 = EDGE_LOOP ( 'NONE', ( #184 ) ) ;
#205 = DIRECTION ( 'NONE',  ( 0.0000000000000000000, 1.000000000000000000, 0.0000000000000000000 ) ) ;
#206 = FACE_OUTER_BOUND ( 'NONE', #233, .T. ) ;
#207 = AXIS2_PLACEMENT_3D ( 'NONE', #158, #160, #51 ) ;
#208 = DIRECTION ( 'NONE',  ( -1.916963990099692051E-30, 1.000000000000000000, -5.490403081274547254E-16 ) ) ;
#209 = CARTESIAN_POINT ( 'NONE',  ( 4.308307098833838953E-14, 2.953999999999998849, 12.33948195828350691 ) ) ;
#210 = CC_DESIGN_PERSON_AND_ORGANIZATION_ASSIGNMENT ( #141, #123, ( #124 ) ) ;
#211 = FACE_OUTER_BOUND ( 'NONE', #131, .T. ) ;
#212 = PERSON_AND_ORGANIZATION ( #118, #68 ) ;
#213 = VERTEX_POINT ( 'NONE', #18 ) ;
#214 = CARTESIAN_POINT ( 'NONE',  ( 1.396592535537253539E-15, 2.953999999999998849, 0.4000000000000000222 ) ) ;
#215 = AXIS2_PLACEMENT_3D ( 'NONE', #209, #32, #9 ) ;
#216 = PERSON_AND_ORGANIZATION ( #118, #68 ) ;
#217 =( NAMED_UNIT ( * ) SI_UNIT ( $, .STERADIAN. ) SOLID_ANGLE_UNIT ( ) );
#218 = APPROVAL_ROLE ( '' ) ;
#219 = EDGE_LOOP ( 'NONE', ( #167 ) ) ;
#220 = CALENDAR_DATE ( 2021, 26, 11 ) ;
#221 = APPLICATION_CONTEXT ( 'configuration controlled 3d designs of mechanical parts and assemblies' ) ;
#222 = PERSON_AND_ORGANIZATION ( #118, #68 ) ;
#223 = DATE_AND_TIME ( #199, #136 ) ;
#224 = EDGE_LOOP ( 'NONE', ( #170 ) ) ;
#225 = APPROVAL_STATUS ( 'not_yet_approved' ) ;
#226 = APPLICATION_CONTEXT ( 'configuration controlled 3d designs of mechanical parts and assemblies' ) ;
#227 = CARTESIAN_POINT ( 'NONE',  ( 2.779219145719134403E-13, -7.189289034394536528E-15, 79.60000000000000853 ) ) ;
#228 = APPROVAL ( #40, 'UNSPECIFIED' ) ;
#229 = DIRECTION ( 'NONE',  ( -3.491481338843133355E-15, -5.490403081274547254E-16, -1.000000000000000000 ) ) ;
#230 = DIRECTION ( 'NONE',  ( -3.491481338843133355E-15, -5.490403081274547254E-16, -1.000000000000000000 ) ) ;
#231 = PRODUCT ( '321494', '321494', '', ( #148 ) ) ;
#232 = APPROVAL_PERSON_ORGANIZATION ( #43, #174, #22 ) ;
#233 = EDGE_LOOP ( 'NONE', ( #99 ) ) ;
#234 = EDGE_CURVE ( 'NONE', #179, #179, #76, .T. ) ;
#235 = ORIENTED_EDGE ( 'NONE', *, *, #61, .T. ) ;
#236 = AXIS2_PLACEMENT_3D ( 'NONE', #92, #166, #243 ) ;
#237 = CARTESIAN_POINT ( 'NONE',  ( 4.308307098833838953E-14, 2.953999999999998849, 12.33948195828350691 ) ) ;
#238 = VERTEX_POINT ( 'NONE', #34 ) ;
#239 = CC_DESIGN_DATE_AND_TIME_ASSIGNMENT ( #203, #102, ( #161 ) ) ;
#240 = PRODUCT_DEFINITION_SHAPE ( 'NONE', 'NONE',  #161 ) ;
#241 = VERTEX_POINT ( 'NONE', #151 ) ;
#242 = CONICAL_SURFACE ( 'NONE', #31, 1.999999999999995337, 0.7853981633974516097 ) ;
#243 = DIRECTION ( 'NONE',  ( 1.000000000000000000, 0.0000000000000000000, 0.0000000000000000000 ) ) ;
ENDSEC;
END-ISO-10303-21;
