ISO-10303-21;
HEADER;
FILE_DESCRIPTION (( 'STEP AP203' ),
    '1' );
FILE_NAME ('321493.step',
    '2021-11-26T10:04:24',
    ( '' ),
    ( '' ),
    'SwSTEP 2.0',
    'SolidWorks 2019',
    '' );
FILE_SCHEMA (( 'CONFIG_CONTROL_DESIGN' ));
ENDSEC;

DATA;
#1 = DIRECTION ( 'NONE',  ( -3.491481338843133355E-15, 9.031770143711729009E-17, -1.000000000000000000 ) ) ;
#2 = AXIS2_PLACEMENT_3D ( 'NONE', #7, #130, #51 ) ;
#3 = PLANE ( 'NONE',  #6 ) ;
#4 = ORIENTED_EDGE ( 'NONE', *, *, #106, .F. ) ;
#5 = DIRECTION ( 'NONE',  ( 3.491481338843133355E-15, 5.484834649275127129E-16, 1.000000000000000000 ) ) ;
#6 = AXIS2_PLACEMENT_3D ( 'NONE', #86, #228, #48 ) ;
#7 = CARTESIAN_POINT ( 'NONE',  ( 5.205138463707581928E-30, 8.176851321644921261E-31, 1.490810907622451028E-15 ) ) ;
#8 = SECURITY_CLASSIFICATION ( '', '', #34 ) ;
#9 =( LENGTH_UNIT ( ) NAMED_UNIT ( * ) SI_UNIT ( .MILLI., .METRE. ) );
#10 = CARTESIAN_POINT ( 'NONE',  ( 4.311330810370116458E-14, 2.948999999999998511, 12.34814221232135267 ) ) ;
#11 =( NAMED_UNIT ( * ) SI_UNIT ( $, .STERADIAN. ) SOLID_ANGLE_UNIT ( ) );
#12 = CC_DESIGN_APPROVAL ( #27, ( #108 ) ) ;
#13 = EDGE_LOOP ( 'NONE', ( #97 ) ) ;
#14 = FACE_OUTER_BOUND ( 'NONE', #79, .T. ) ;
#15 = DATE_AND_TIME ( #198, #19 ) ;
#16 = MANIFOLD_SOLID_BREP ( 'Corps-Déplacer/Copier1[1]', #59 ) ;
#17 = PERSON_AND_ORGANIZATION_ROLE ( 'design_supplier' ) ;
#18 = APPROVAL_ROLE ( '' ) ;
#19 = LOCAL_TIME ( 11, 4, 24.00000000000000000, #101 ) ;
#20 = DIRECTION ( 'NONE',  ( -3.491481338843133355E-15, -5.484834649275127129E-16, -1.000000000000000000 ) ) ;
#21 = EDGE_LOOP ( 'NONE', ( #152 ) ) ;
#22 = LOCAL_TIME ( 11, 4, 24.00000000000000000, #102 ) ;
#23 = DATE_TIME_ROLE ( 'creation_date' ) ;
#24 = FACE_OUTER_BOUND ( 'NONE', #84, .T. ) ;
#25 = DIRECTION ( 'NONE',  ( -3.491481338843133355E-15, 9.031770143711729009E-17, -1.000000000000000000 ) ) ;
#26 = AXIS2_PLACEMENT_3D ( 'NONE', #222, #105, #183 ) ;
#27 = APPROVAL ( #46, 'UNSPECIFIED' ) ;
#28 = DIRECTION ( 'NONE',  ( -3.491481338843133355E-15, 9.031770143711729009E-17, -1.000000000000000000 ) ) ;
#29 = VERTEX_POINT ( 'NONE', #10 ) ;
#30 = MECHANICAL_CONTEXT ( 'NONE', #54, 'mechanical' ) ;
#31 = ADVANCED_FACE ( 'NONE', ( #145, #88 ), #127, .T. ) ;
#32 = CC_DESIGN_APPROVAL ( #242, ( #55 ) ) ;
#33 = EDGE_LOOP ( 'NONE', ( #68 ) ) ;
#34 = SECURITY_CLASSIFICATION_LEVEL ( 'unclassified' ) ;
#35 = CARTESIAN_POINT ( 'NONE',  ( 0.0000000000000000000, 0.0000000000000000000, 0.0000000000000000000 ) ) ;
#36 = ORIENTED_EDGE ( 'NONE', *, *, #81, .T. ) ;
#37 = ADVANCED_FACE ( 'NONE', ( #188 ), #61, .T. ) ;
#38 = COORDINATED_UNIVERSAL_TIME_OFFSET ( 1, 0, .AHEAD. ) ;
#39 = DATE_AND_TIME ( #122, #22 ) ;
#40 = CONICAL_SURFACE ( 'NONE', #115, 1.999999999999995337, 0.7853981633974516097 ) ;
#41 = EDGE_LOOP ( 'NONE', ( #221 ) ) ;
#42 = SHAPE_DEFINITION_REPRESENTATION ( #146, #113 ) ;
#43 = DIRECTION ( 'NONE',  ( 0.0000000000000000000, 1.000000000000000000, 0.0000000000000000000 ) ) ;
#44 = COORDINATED_UNIVERSAL_TIME_OFFSET ( 1, 0, .AHEAD. ) ;
#45 = ORIENTED_EDGE ( 'NONE', *, *, #134, .F. ) ;
#46 = APPROVAL_STATUS ( 'not_yet_approved' ) ;
#47 = DIRECTION ( 'NONE',  ( 3.153425691349006731E-31, 1.000000000000000000, 9.031770143711729009E-17 ) ) ;
#48 = DIRECTION ( 'NONE',  ( 1.915019782458432844E-30, -1.000000000000000000, 5.484834649275127129E-16 ) ) ;
#49 = AXIS2_PLACEMENT_3D ( 'NONE', #177, #5, #121 ) ;
#50 = CARTESIAN_POINT ( 'NONE',  ( 4.311330810370117089E-14, 2.948999999999998511, 12.34814221232135267 ) ) ;
#51 = DIRECTION ( 'NONE',  ( -1.915019782458432844E-30, 1.000000000000000000, -5.484834649275127129E-16 ) ) ;
#52 = AXIS2_PLACEMENT_3D ( 'NONE', #89, #20, #212 ) ;
#53 = CARTESIAN_POINT ( 'NONE',  ( 4.885231259955590439E-14, 1.999999999999990452, 13.99185842870425134 ) ) ;
#54 = APPLICATION_CONTEXT ( 'configuration controlled 3d designs of mechanical parts and assemblies' ) ;
#55 = PRODUCT_DEFINITION ( 'UNKNOWN', '', #108, #58 ) ;
#56 = DATE_AND_TIME ( #78, #131 ) ;
#57 = EDGE_LOOP ( 'NONE', ( #154 ) ) ;
#58 = DESIGN_CONTEXT ( 'detailed design', #132, 'design' ) ;
#59 = CLOSED_SHELL ( 'NONE', ( #37, #232, #103, #31, #195 ) ) ;
#60 = DIRECTION ( 'NONE',  ( -3.153425691349006731E-31, -1.000000000000000000, -9.031770143711729009E-17 ) ) ;
#61 = PLANE ( 'NONE',  #93 ) ;
#62 = EDGE_CURVE ( 'NONE', #162, #162, #240, .T. ) ;
#63 = APPROVAL_DATE_TIME ( #87, #242 ) ;
#64 = CARTESIAN_POINT ( 'NONE',  ( 2.779219145719134403E-13, -7.189289034394536528E-15, 79.60000000000000853 ) ) ;
#65 = DIRECTION ( 'NONE',  ( 0.0000000000000000000, 1.000000000000000000, 0.0000000000000000000 ) ) ;
#66 = AXIS2_PLACEMENT_3D ( 'NONE', #231, #192, #67 ) ;
#67 = DIRECTION ( 'NONE',  ( 3.153425691349006731E-31, 1.000000000000000000, 9.031770143711729009E-17 ) ) ;
#68 = ORIENTED_EDGE ( 'NONE', *, *, #238, .T. ) ;
#69 = FACE_BOUND ( 'NONE', #13, .T. ) ;
#70 = CIRCLE ( 'NONE', #220, 1.599999999999994982 ) ;
#71 = VERTEX_POINT ( 'NONE', #149 ) ;
#72 =( GEOMETRIC_REPRESENTATION_CONTEXT ( 3 ) GLOBAL_UNCERTAINTY_ASSIGNED_CONTEXT ( ( #173 ) ) GLOBAL_UNIT_ASSIGNED_CONTEXT ( ( #9, #129, #11 ) ) REPRESENTATION_CONTEXT ( 'NONE', 'WORKASPACE' ) );
#73 = CC_DESIGN_PERSON_AND_ORGANIZATION_ASSIGNMENT ( #118, #74, ( #8 ) ) ;
#74 = PERSON_AND_ORGANIZATION_ROLE ( 'classification_officer' ) ;
#75 = ORIENTED_EDGE ( 'NONE', *, *, #134, .T. ) ;
#76 = CC_DESIGN_DATE_AND_TIME_ASSIGNMENT ( #207, #23, ( #55 ) ) ;
#77 = PLANE ( 'NONE',  #158 ) ;
#78 = CALENDAR_DATE ( 2021, 26, 11 ) ;
#79 = EDGE_LOOP ( 'NONE', ( #45 ) ) ;
#80 = APPROVAL_ROLE ( '' ) ;
#81 = EDGE_CURVE ( 'NONE', #29, #29, #179, .T. ) ;
#82 = CARTESIAN_POINT ( 'NONE',  ( 4.311330810370117089E-14, -1.115255821635504950E-15, 12.34814221232135267 ) ) ;
#83 = PERSON_AND_ORGANIZATION ( #98, #112 ) ;
#84 = EDGE_LOOP ( 'NONE', ( #104 ) ) ;
#85 = APPROVAL_ROLE ( '' ) ;
#86 = CARTESIAN_POINT ( 'NONE',  ( 4.311330810370116458E-14, 6.772751826031696671E-15, 12.34814221232135090 ) ) ;
#87 = DATE_AND_TIME ( #224, #148 ) ;
#88 = FACE_OUTER_BOUND ( 'NONE', #167, .T. ) ;
#89 = CARTESIAN_POINT ( 'NONE',  ( 1.396592535537259061E-15, 2.193933859710059874E-16, 0.4000000000000016320 ) ) ;
#90 = CONICAL_SURFACE ( 'NONE', #49, 2.718059892324148574, 0.5235987755982969283 ) ;
#91 = DIRECTION ( 'NONE',  ( 0.0000000000000000000, 1.000000000000000000, 0.0000000000000000000 ) ) ;
#92 = CARTESIAN_POINT ( 'NONE',  ( 1.396592535537253539E-15, 2.948999999999998511, 0.4000000000000000222 ) ) ;
#93 = AXIS2_PLACEMENT_3D ( 'NONE', #125, #189, #60 ) ;
#94 = CC_DESIGN_APPROVAL ( #119, ( #8 ) ) ;
#95 = CARTESIAN_POINT ( 'NONE',  ( 2.779219145719134403E-13, -7.189289034394536528E-15, 79.60000000000000853 ) ) ;
#96 = CIRCLE ( 'NONE', #227, 2.948999999999999844 ) ;
#97 = ORIENTED_EDGE ( 'NONE', *, *, #117, .T. ) ;
#98 = PERSON ( 'UNSPECIFIED', 'UNSPECIFIED', 'UNSPECIFIED', ('UNSPECIFIED'), ('UNSPECIFIED'), ('UNSPECIFIED') ) ;
#99 = CYLINDRICAL_SURFACE ( 'NONE', #26, 2.948999999999994959 ) ;
#100 = PERSON_AND_ORGANIZATION ( #98, #112 ) ;
#101 = COORDINATED_UNIVERSAL_TIME_OFFSET ( 1, 0, .AHEAD. ) ;
#102 = COORDINATED_UNIVERSAL_TIME_OFFSET ( 1, 0, .AHEAD. ) ;
#103 = ADVANCED_FACE ( 'NONE', ( #141, #24 ), #143, .T. ) ;
#104 = ORIENTED_EDGE ( 'NONE', *, *, #193, .F. ) ;
#105 = DIRECTION ( 'NONE',  ( -3.491481338843133355E-15, -5.484834649275127129E-16, -1.000000000000000000 ) ) ;
#106 = EDGE_CURVE ( 'NONE', #147, #147, #96, .T. ) ;
#107 = EDGE_LOOP ( 'NONE', ( #205 ) ) ;
#108 = PRODUCT_DEFINITION_FORMATION_WITH_SPECIFIED_SOURCE ( 'ANY', '', #178, .NOT_KNOWN. ) ;
#109 = DIRECTION ( 'NONE',  ( 0.0000000000000000000, 1.000000000000000000, 0.0000000000000000000 ) ) ;
#110 = PERSON_AND_ORGANIZATION ( #98, #112 ) ;
#111 = FACE_BOUND ( 'NONE', #57, .T. ) ;
#112 = ORGANIZATION ( 'UNSPECIFIED', 'UNSPECIFIED', '' ) ;
#113 = ADVANCED_BREP_SHAPE_REPRESENTATION ( '321493', ( #16, #180, #213 ), #72 ) ;
#114 = DIRECTION ( 'NONE',  ( 0.0000000000000000000, 1.000000000000000000, 0.0000000000000000000 ) ) ;
#115 = AXIS2_PLACEMENT_3D ( 'NONE', #95, #28, #114 ) ;
#116 = CC_DESIGN_DATE_AND_TIME_ASSIGNMENT ( #56, #151, ( #8 ) ) ;
#117 = EDGE_CURVE ( 'NONE', #71, #71, #70, .T. ) ;
#118 = PERSON_AND_ORGANIZATION ( #98, #112 ) ;
#119 = APPROVAL ( #241, 'UNSPECIFIED' ) ;
#120 = ADVANCED_FACE ( 'NONE', ( #157, #111 ), #90, .T. ) ;
#121 = DIRECTION ( 'NONE',  ( 1.915019782458432844E-30, -1.000000000000000000, 5.484834649275127129E-16 ) ) ;
#122 = CALENDAR_DATE ( 2021, 26, 11 ) ;
#123 = DIRECTION ( 'NONE',  ( 0.0000000000000000000, 1.000000000000000000, 0.0000000000000000000 ) ) ;
#124 = DIRECTION ( 'NONE',  ( -3.491481338843133355E-15, 9.031770143711729009E-17, -1.000000000000000000 ) ) ;
#125 = CARTESIAN_POINT ( 'NONE',  ( 2.793185071074506684E-13, -7.225416114969383207E-15, 80.00000000000000000 ) ) ;
#126 = DIRECTION ( 'NONE',  ( -3.491481338843133355E-15, -5.484834649275127129E-16, -1.000000000000000000 ) ) ;
#127 = CONICAL_SURFACE ( 'NONE', #140, 2.948999999999999844, 0.5235987755982933756 ) ;
#128 = FACE_OUTER_BOUND ( 'NONE', #107, .T. ) ;
#129 =( NAMED_UNIT ( * ) PLANE_ANGLE_UNIT ( ) SI_UNIT ( $, .RADIAN. ) );
#130 = DIRECTION ( 'NONE',  ( -3.491481338843133355E-15, -5.484834649275127129E-16, -1.000000000000000000 ) ) ;
#131 = LOCAL_TIME ( 11, 4, 24.00000000000000000, #38 ) ;
#132 = APPLICATION_CONTEXT ( 'configuration controlled 3d designs of mechanical parts and assemblies' ) ;
#133 = PERSON_AND_ORGANIZATION ( #98, #112 ) ;
#134 = EDGE_CURVE ( 'NONE', #218, #218, #197, .T. ) ;
#135 = FACE_OUTER_BOUND ( 'NONE', #196, .T. ) ;
#136 = APPROVAL_PERSON_ORGANIZATION ( #110, #27, #80 ) ;
#137 = DIRECTION ( 'NONE',  ( 1.000000000000000000, 0.0000000000000000000, 0.0000000000000000000 ) ) ;
#138 = CC_DESIGN_PERSON_AND_ORGANIZATION_ASSIGNMENT ( #133, #17, ( #108 ) ) ;
#139 = PERSON_AND_ORGANIZATION ( #98, #112 ) ;
#140 = AXIS2_PLACEMENT_3D ( 'NONE', #159, #209, #123 ) ;
#141 = FACE_OUTER_BOUND ( 'NONE', #41, .T. ) ;
#142 = CARTESIAN_POINT ( 'NONE',  ( 4.311330810370117089E-14, 6.772751826031699038E-15, 12.34814221232135445 ) ) ;
#143 = CYLINDRICAL_SURFACE ( 'NONE', #191, 1.999999999999993561 ) ;
#144 = CARTESIAN_POINT ( 'NONE',  ( 0.0000000000000000000, 0.0000000000000000000, 0.0000000000000000000 ) ) ;
#145 = FACE_BOUND ( 'NONE', #21, .T. ) ;
#146 = PRODUCT_DEFINITION_SHAPE ( 'NONE', 'NONE',  #55 ) ;
#147 = VERTEX_POINT ( 'NONE', #50 ) ;
#148 = LOCAL_TIME ( 11, 4, 24.00000000000000000, #204 ) ;
#149 = CARTESIAN_POINT ( 'NONE',  ( 2.793185071074506684E-13, 1.599999999999987876, 80.00000000000000000 ) ) ;
#150 = CIRCLE ( 'NONE', #186, 1.999999999999991784 ) ;
#151 = DATE_TIME_ROLE ( 'classification_date' ) ;
#152 = ORIENTED_EDGE ( 'NONE', *, *, #193, .T. ) ;
#153 = CLOSED_SHELL ( 'NONE', ( #160, #216, #120, #229 ) ) ;
#154 = ORIENTED_EDGE ( 'NONE', *, *, #238, .F. ) ;
#155 = CC_DESIGN_PERSON_AND_ORGANIZATION_ASSIGNMENT ( #187, #185, ( #108 ) ) ;
#156 = APPROVAL_DATE_TIME ( #39, #27 ) ;
#157 = FACE_OUTER_BOUND ( 'NONE', #235, .T. ) ;
#158 = AXIS2_PLACEMENT_3D ( 'NONE', #243, #126, #214 ) ;
#159 = CARTESIAN_POINT ( 'NONE',  ( 4.311330810370117089E-14, -1.115255821635504950E-15, 12.34814221232135267 ) ) ;
#160 = ADVANCED_FACE ( 'NONE', ( #161 ), #3, .T. ) ;
#161 = FACE_OUTER_BOUND ( 'NONE', #219, .T. ) ;
#162 = VERTEX_POINT ( 'NONE', #233 ) ;
#163 = PLANE ( 'NONE',  #66 ) ;
#164 = CC_DESIGN_SECURITY_CLASSIFICATION ( #8, ( #108 ) ) ;
#165 = CC_DESIGN_PERSON_AND_ORGANIZATION_ASSIGNMENT ( #83, #176, ( #55 ) ) ;
#166 = VERTEX_POINT ( 'NONE', #194 ) ;
#167 = EDGE_LOOP ( 'NONE', ( #4 ) ) ;
#168 = PERSON_AND_ORGANIZATION ( #98, #112 ) ;
#169 = AXIS2_PLACEMENT_3D ( 'NONE', #142, #175, #226 ) ;
#170 = APPLICATION_PROTOCOL_DEFINITION ( 'international standard', 'config_control_design', 1994, #54 ) ;
#171 = FACE_OUTER_BOUND ( 'NONE', #33, .T. ) ;
#172 = CARTESIAN_POINT ( 'NONE',  ( 4.885231259955590439E-14, -1.263712492114123682E-15, 13.99185842870425134 ) ) ;
#173 = UNCERTAINTY_MEASURE_WITH_UNIT (LENGTH_MEASURE( 1.000000000000000082E-05 ), #9, 'distance_accuracy_value', 'NONE');
#174 = LOCAL_TIME ( 11, 4, 24.00000000000000000, #44 ) ;
#175 = DIRECTION ( 'NONE',  ( -3.491481338843133355E-15, -5.484834649275127129E-16, -1.000000000000000000 ) ) ;
#176 = PERSON_AND_ORGANIZATION_ROLE ( 'creator' ) ;
#177 = CARTESIAN_POINT ( 'NONE',  ( 5.205138463707581928E-30, 8.176851321644921261E-31, 1.490810907622451028E-15 ) ) ;
#178 = PRODUCT ( '321493', '321493', '', ( #30 ) ) ;
#179 = CIRCLE ( 'NONE', #169, 2.948999999999991406 ) ;
#180 = MANIFOLD_SOLID_BREP ( 'Corps-Déplacer/Copier1[2]', #153 ) ;
#181 = EDGE_LOOP ( 'NONE', ( #237 ) ) ;
#182 = DIRECTION ( 'NONE',  ( 0.0000000000000000000, 0.0000000000000000000, 1.000000000000000000 ) ) ;
#183 = DIRECTION ( 'NONE',  ( -1.915019782458432844E-30, 1.000000000000000000, -5.484834649275127129E-16 ) ) ;
#184 = CC_DESIGN_PERSON_AND_ORGANIZATION_ASSIGNMENT ( #100, #236, ( #178 ) ) ;
#185 = PERSON_AND_ORGANIZATION_ROLE ( 'creator' ) ;
#186 = AXIS2_PLACEMENT_3D ( 'NONE', #172, #1, #91 ) ;
#187 = PERSON_AND_ORGANIZATION ( #98, #112 ) ;
#188 = FACE_OUTER_BOUND ( 'NONE', #181, .T. ) ;
#189 = DIRECTION ( 'NONE',  ( 3.491481338843133355E-15, -9.031770143711729009E-17, 1.000000000000000000 ) ) ;
#190 = CARTESIAN_POINT ( 'NONE',  ( 2.793185071074506684E-13, -7.225416114969383207E-15, 80.00000000000000000 ) ) ;
#191 = AXIS2_PLACEMENT_3D ( 'NONE', #144, #208, #47 ) ;
#192 = DIRECTION ( 'NONE',  ( -3.491481338843133355E-15, 9.031770143711729009E-17, -1.000000000000000000 ) ) ;
#193 = EDGE_CURVE ( 'NONE', #215, #215, #150, .T. ) ;
#194 = CARTESIAN_POINT ( 'NONE',  ( -6.842277657836020854E-46, 2.718059892324148574, 0.0000000000000000000 ) ) ;
#195 = ADVANCED_FACE ( 'NONE', ( #128 ), #163, .T. ) ;
#196 = EDGE_LOOP ( 'NONE', ( #36 ) ) ;
#197 = CIRCLE ( 'NONE', #52, 2.948999999999998067 ) ;
#198 = CALENDAR_DATE ( 2021, 26, 11 ) ;
#199 = APPLICATION_PROTOCOL_DEFINITION ( 'international standard', 'config_control_design', 1994, #132 ) ;
#200 = ORIENTED_EDGE ( 'NONE', *, *, #81, .F. ) ;
#201 = EDGE_LOOP ( 'NONE', ( #225 ) ) ;
#202 = APPROVAL_DATE_TIME ( #15, #119 ) ;
#203 = AXIS2_PLACEMENT_3D ( 'NONE', #64, #211, #65 ) ;
#204 = COORDINATED_UNIVERSAL_TIME_OFFSET ( 1, 0, .AHEAD. ) ;
#205 = ORIENTED_EDGE ( 'NONE', *, *, #106, .T. ) ;
#206 = PRODUCT_RELATED_PRODUCT_CATEGORY ( 'detail', '', ( #178 ) ) ;
#207 = DATE_AND_TIME ( #210, #174 ) ;
#208 = DIRECTION ( 'NONE',  ( -3.491481338843133355E-15, 9.031770143711729009E-17, -1.000000000000000000 ) ) ;
#209 = DIRECTION ( 'NONE',  ( -3.491481338843133355E-15, 9.031770143711729009E-17, -1.000000000000000000 ) ) ;
#210 = CALENDAR_DATE ( 2021, 26, 11 ) ;
#211 = DIRECTION ( 'NONE',  ( -3.491481338843133355E-15, 9.031770143711729009E-17, -1.000000000000000000 ) ) ;
#212 = DIRECTION ( 'NONE',  ( -1.893929073829429641E-30, 1.000000000000000000, -5.514761813252824131E-16 ) ) ;
#213 = AXIS2_PLACEMENT_3D ( 'NONE', #35, #182, #137 ) ;
#214 = DIRECTION ( 'NONE',  ( -1.915019782458432844E-30, 1.000000000000000000, -5.484834649275127129E-16 ) ) ;
#215 = VERTEX_POINT ( 'NONE', #53 ) ;
#216 = ADVANCED_FACE ( 'NONE', ( #135, #14 ), #99, .T. ) ;
#217 = FACE_OUTER_BOUND ( 'NONE', #201, .T. ) ;
#218 = VERTEX_POINT ( 'NONE', #92 ) ;
#219 = EDGE_LOOP ( 'NONE', ( #200 ) ) ;
#220 = AXIS2_PLACEMENT_3D ( 'NONE', #190, #25, #109 ) ;
#221 = ORIENTED_EDGE ( 'NONE', *, *, #62, .T. ) ;
#222 = CARTESIAN_POINT ( 'NONE',  ( 0.0000000000000000000, 0.0000000000000000000, 0.0000000000000000000 ) ) ;
#223 = APPROVAL_PERSON_ORGANIZATION ( #139, #119, #18 ) ;
#224 = CALENDAR_DATE ( 2021, 26, 11 ) ;
#225 = ORIENTED_EDGE ( 'NONE', *, *, #62, .F. ) ;
#226 = DIRECTION ( 'NONE',  ( -2.089852771122133849E-30, 1.000000000000000000, -5.882412600803025292E-16 ) ) ;
#227 = AXIS2_PLACEMENT_3D ( 'NONE', #82, #124, #43 ) ;
#228 = DIRECTION ( 'NONE',  ( 3.491481338843133355E-15, 5.484834649275127129E-16, 1.000000000000000000 ) ) ;
#229 = ADVANCED_FACE ( 'NONE', ( #171 ), #77, .T. ) ;
#230 = APPROVAL_PERSON_ORGANIZATION ( #168, #242, #85 ) ;
#231 = CARTESIAN_POINT ( 'NONE',  ( 4.311330810370116458E-14, 2.948999999999998511, 12.34814221232135090 ) ) ;
#232 = ADVANCED_FACE ( 'NONE', ( #69, #217 ), #40, .T. ) ;
#233 = CARTESIAN_POINT ( 'NONE',  ( 2.779219145719134403E-13, 1.999999999999988010, 79.60000000000000853 ) ) ;
#234 = CIRCLE ( 'NONE', #2, 2.718059892324148574 ) ;
#235 = EDGE_LOOP ( 'NONE', ( #75 ) ) ;
#236 = PERSON_AND_ORGANIZATION_ROLE ( 'design_owner' ) ;
#237 = ORIENTED_EDGE ( 'NONE', *, *, #117, .F. ) ;
#238 = EDGE_CURVE ( 'NONE', #166, #166, #234, .T. ) ;
#239 = APPROVAL_STATUS ( 'not_yet_approved' ) ;
#240 = CIRCLE ( 'NONE', #203, 1.999999999999995337 ) ;
#241 = APPROVAL_STATUS ( 'not_yet_approved' ) ;
#242 = APPROVAL ( #239, 'UNSPECIFIED' ) ;
#243 = CARTESIAN_POINT ( 'NONE',  ( -2.602569231853790964E-30, 2.718059892324148574, -7.454054538112255139E-16 ) ) ;
ENDSEC;
END-ISO-10303-21;
