ISO-10303-21;
HEADER;
FILE_DESCRIPTION (( 'STEP AP203' ),
    '1' );
FILE_NAME ('321492.step',
    '2021-11-26T10:04:23',
    ( '' ),
    ( '' ),
    'SwSTEP 2.0',
    'SolidWorks 2019',
    '' );
FILE_SCHEMA (( 'CONFIG_CONTROL_DESIGN' ));
ENDSEC;

DATA;
#1 = CC_DESIGN_SECURITY_CLASSIFICATION ( #112, ( #139 ) ) ;
#2 = DIRECTION ( 'NONE',  ( -3.491481338843133355E-15, -5.479274022536945369E-16, -1.000000000000000000 ) ) ;
#3 = DIRECTION ( 'NONE',  ( -3.491481338843133355E-15, 9.031770143711729009E-17, -1.000000000000000000 ) ) ;
#4 = DIRECTION ( 'NONE',  ( 0.0000000000000000000, 1.000000000000000000, 0.0000000000000000000 ) ) ;
#5 = DIRECTION ( 'NONE',  ( 1.913078300009569377E-30, -1.000000000000000000, 5.479274022536945369E-16 ) ) ;
#6 = APPLICATION_CONTEXT ( 'configuration controlled 3d designs of mechanical parts and assemblies' ) ;
#7 = CARTESIAN_POINT ( 'NONE',  ( 2.793185071074506684E-13, -7.225416114969383207E-15, 80.00000000000000000 ) ) ;
#8 = EDGE_CURVE ( 'NONE', #91, #91, #190, .T. ) ;
#9 = APPROVAL_STATUS ( 'not_yet_approved' ) ;
#10 = COORDINATED_UNIVERSAL_TIME_OFFSET ( 1, 0, .AHEAD. ) ;
#11 = AXIS2_PLACEMENT_3D ( 'NONE', #125, #107, #124 ) ;
#12 = EDGE_LOOP ( 'NONE', ( #100 ) ) ;
#13 = DIRECTION ( 'NONE',  ( 0.0000000000000000000, 0.0000000000000000000, 1.000000000000000000 ) ) ;
#14 = EDGE_LOOP ( 'NONE', ( #18 ) ) ;
#15 = DATE_AND_TIME ( #35, #216 ) ;
#16 = ORIENTED_EDGE ( 'NONE', *, *, #96, .F. ) ;
#17 = PERSON_AND_ORGANIZATION ( #149, #121 ) ;
#18 = ORIENTED_EDGE ( 'NONE', *, *, #96, .T. ) ;
#19 = AXIS2_PLACEMENT_3D ( 'NONE', #229, #230, #180 ) ;
#20 = MANIFOLD_SOLID_BREP ( 'Corps-Déplacer/Copier1[1]', #44 ) ;
#21 = CC_DESIGN_PERSON_AND_ORGANIZATION_ASSIGNMENT ( #93, #185, ( #168 ) ) ;
#22 = PERSON_AND_ORGANIZATION ( #149, #121 ) ;
#23 = DATE_AND_TIME ( #78, #182 ) ;
#24 = ORIENTED_EDGE ( 'NONE', *, *, #135, .T. ) ;
#25 = ORIENTED_EDGE ( 'NONE', *, *, #208, .F. ) ;
#26 = ORIENTED_EDGE ( 'NONE', *, *, #8, .F. ) ;
#27 = CC_DESIGN_APPROVAL ( #186, ( #139 ) ) ;
#28 = CIRCLE ( 'NONE', #172, 2.943999999999999950 ) ;
#29 = CARTESIAN_POINT ( 'NONE',  ( 4.314354521906393962E-14, -1.116037995874064443E-15, 12.35680246635919666 ) ) ;
#30 = CYLINDRICAL_SURFACE ( 'NONE', #126, 1.999999999999993561 ) ;
#31 = CARTESIAN_POINT ( 'NONE',  ( 5.190296006631628344E-30, 8.145268818144940811E-31, 1.486559858959859154E-15 ) ) ;
#32 = ADVANCED_FACE ( 'NONE', ( #109 ), #141, .T. ) ;
#33 = DIRECTION ( 'NONE',  ( -3.491481338843133355E-15, 9.031770143711729009E-17, -1.000000000000000000 ) ) ;
#34 = DIRECTION ( 'NONE',  ( 0.0000000000000000000, 1.000000000000000000, 0.0000000000000000000 ) ) ;
#35 = CALENDAR_DATE ( 2021, 26, 11 ) ;
#36 = CC_DESIGN_APPROVAL ( #232, ( #112 ) ) ;
#37 = LOCAL_TIME ( 11, 4, 23.00000000000000000, #202 ) ;
#38 = APPLICATION_PROTOCOL_DEFINITION ( 'international standard', 'config_control_design', 1994, #6 ) ;
#39 =( NAMED_UNIT ( * ) PLANE_ANGLE_UNIT ( ) SI_UNIT ( $, .RADIAN. ) );
#40 = DATE_TIME_ROLE ( 'creation_date' ) ;
#41 = CC_DESIGN_PERSON_AND_ORGANIZATION_ASSIGNMENT ( #17, #98, ( #200 ) ) ;
#42 = PERSON_AND_ORGANIZATION_ROLE ( 'creator' ) ;
#43 = SHAPE_DEFINITION_REPRESENTATION ( #234, #67 ) ;
#44 = CLOSED_SHELL ( 'NONE', ( #75, #61, #152, #191, #32 ) ) ;
#45 = CARTESIAN_POINT ( 'NONE',  ( 2.779219145719134403E-13, -7.189289034394536528E-15, 79.60000000000000853 ) ) ;
#46 = DIRECTION ( 'NONE',  ( -3.491481338843133355E-15, -5.479274022536945369E-16, -1.000000000000000000 ) ) ;
#47 = DIRECTION ( 'NONE',  ( 3.491481338843133355E-15, -9.031770143711729009E-17, 1.000000000000000000 ) ) ;
#48 = EDGE_CURVE ( 'NONE', #218, #218, #224, .T. ) ;
#49 = DIRECTION ( 'NONE',  ( -3.491481338843133355E-15, 9.031770143711729009E-17, -1.000000000000000000 ) ) ;
#50 = AXIS2_PLACEMENT_3D ( 'NONE', #145, #13, #201 ) ;
#51 = CONICAL_SURFACE ( 'NONE', #83, 2.943999999999999950, 0.5235987755982931535 ) ;
#52 = DIRECTION ( 'NONE',  ( -1.913078300009569377E-30, 1.000000000000000000, -5.479274022536945369E-16 ) ) ;
#53 = VERTEX_POINT ( 'NONE', #199 ) ;
#54 = CARTESIAN_POINT ( 'NONE',  ( 6.842277657836020854E-46, 2.713059892324149125, 0.0000000000000000000 ) ) ;
#55 = UNCERTAINTY_MEASURE_WITH_UNIT (LENGTH_MEASURE( 1.000000000000000082E-05 ), #236, 'distance_accuracy_value', 'NONE');
#56 = CC_DESIGN_PERSON_AND_ORGANIZATION_ASSIGNMENT ( #132, #42, ( #139 ) ) ;
#57 = DIRECTION ( 'NONE',  ( 1.913078300009569377E-30, -1.000000000000000000, 5.479274022536945369E-16 ) ) ;
#58 = EDGE_LOOP ( 'NONE', ( #94 ) ) ;
#59 = CALENDAR_DATE ( 2021, 26, 11 ) ;
#60 = EDGE_LOOP ( 'NONE', ( #156 ) ) ;
#61 = ADVANCED_FACE ( 'NONE', ( #137, #144 ), #203, .T. ) ;
#62 = DIRECTION ( 'NONE',  ( 0.0000000000000000000, 1.000000000000000000, 0.0000000000000000000 ) ) ;
#63 = FACE_BOUND ( 'NONE', #81, .T. ) ;
#64 = DIRECTION ( 'NONE',  ( 0.0000000000000000000, 1.000000000000000000, 0.0000000000000000000 ) ) ;
#65 = DIRECTION ( 'NONE',  ( -3.491481338843133355E-15, 9.031770143711729009E-17, -1.000000000000000000 ) ) ;
#66 = DIRECTION ( 'NONE',  ( -3.491481338843133355E-15, -5.479274022536945369E-16, -1.000000000000000000 ) ) ;
#67 = ADVANCED_BREP_SHAPE_REPRESENTATION ( '321492', ( #20, #176, #50 ), #239 ) ;
#68 = AXIS2_PLACEMENT_3D ( 'NONE', #211, #46, #106 ) ;
#69 = VERTEX_POINT ( 'NONE', #113 ) ;
#70 = APPLICATION_PROTOCOL_DEFINITION ( 'international standard', 'config_control_design', 1994, #228 ) ;
#71 = EDGE_LOOP ( 'NONE', ( #92 ) ) ;
#72 = CARTESIAN_POINT ( 'NONE',  ( 4.314354521906394593E-14, 6.770630675554241061E-15, 12.35680246635919843 ) ) ;
#73 = CIRCLE ( 'NONE', #11, 2.943999999999998174 ) ;
#74 = AXIS2_PLACEMENT_3D ( 'NONE', #85, #49, #64 ) ;
#75 = ADVANCED_FACE ( 'NONE', ( #142 ), #159, .T. ) ;
#76 = SECURITY_CLASSIFICATION_LEVEL ( 'unclassified' ) ;
#77 = APPROVAL_STATUS ( 'not_yet_approved' ) ;
#78 = CALENDAR_DATE ( 2021, 26, 11 ) ;
#79 = APPROVAL_ROLE ( '' ) ;
#80 = APPROVAL_DATE_TIME ( #205, #186 ) ;
#81 = EDGE_LOOP ( 'NONE', ( #114 ) ) ;
#82 = CC_DESIGN_DATE_AND_TIME_ASSIGNMENT ( #23, #116, ( #112 ) ) ;
#83 = AXIS2_PLACEMENT_3D ( 'NONE', #29, #215, #34 ) ;
#84 = DIRECTION ( 'NONE',  ( 3.491481338843133355E-15, 5.479274022536945369E-16, 1.000000000000000000 ) ) ;
#85 = CARTESIAN_POINT ( 'NONE',  ( 4.885231259955590439E-14, -1.263712492114123682E-15, 13.99185842870425134 ) ) ;
#86 = FACE_OUTER_BOUND ( 'NONE', #97, .T. ) ;
#87 = CC_DESIGN_APPROVAL ( #225, ( #200 ) ) ;
#88 = PLANE ( 'NONE',  #108 ) ;
#89 = FACE_OUTER_BOUND ( 'NONE', #223, .T. ) ;
#90 = CONICAL_SURFACE ( 'NONE', #136, 2.713059892324149125, 0.5235987755982969283 ) ;
#91 = VERTEX_POINT ( 'NONE', #233 ) ;
#92 = ORIENTED_EDGE ( 'NONE', *, *, #162, .F. ) ;
#93 = PERSON_AND_ORGANIZATION ( #149, #121 ) ;
#94 = ORIENTED_EDGE ( 'NONE', *, *, #162, .T. ) ;
#95 = CARTESIAN_POINT ( 'NONE',  ( 2.779219145719134403E-13, 1.999999999999988010, 79.60000000000000853 ) ) ;
#96 = EDGE_CURVE ( 'NONE', #53, #53, #28, .T. ) ;
#97 = EDGE_LOOP ( 'NONE', ( #192 ) ) ;
#98 = PERSON_AND_ORGANIZATION_ROLE ( 'creator' ) ;
#99 = CIRCLE ( 'NONE', #74, 1.999999999999991784 ) ;
#100 = ORIENTED_EDGE ( 'NONE', *, *, #8, .T. ) ;
#101 = EDGE_LOOP ( 'NONE', ( #16 ) ) ;
#102 = AXIS2_PLACEMENT_3D ( 'NONE', #161, #3, #210 ) ;
#103 = CC_DESIGN_DATE_AND_TIME_ASSIGNMENT ( #15, #40, ( #200 ) ) ;
#104 = ORIENTED_EDGE ( 'NONE', *, *, #208, .T. ) ;
#105 = CYLINDRICAL_SURFACE ( 'NONE', #68, 2.943999999999995065 ) ;
#106 = DIRECTION ( 'NONE',  ( -1.913078300009569377E-30, 1.000000000000000000, -5.479274022536945369E-16 ) ) ;
#107 = DIRECTION ( 'NONE',  ( -3.491481338843133355E-15, -5.479274022536945369E-16, -1.000000000000000000 ) ) ;
#108 = AXIS2_PLACEMENT_3D ( 'NONE', #231, #66, #52 ) ;
#109 = FACE_OUTER_BOUND ( 'NONE', #14, .T. ) ;
#110 = CARTESIAN_POINT ( 'NONE',  ( 5.190296006631628344E-30, 8.145268818144940811E-31, 1.486559858959859154E-15 ) ) ;
#111 = APPROVAL_DATE_TIME ( #130, #225 ) ;
#112 = SECURITY_CLASSIFICATION ( '', '', #76 ) ;
#113 = CARTESIAN_POINT ( 'NONE',  ( 4.885231259955590439E-14, 1.999999999999990452, 13.99185842870425134 ) ) ;
#114 = ORIENTED_EDGE ( 'NONE', *, *, #118, .T. ) ;
#115 = MECHANICAL_CONTEXT ( 'NONE', #228, 'mechanical' ) ;
#116 = DATE_TIME_ROLE ( 'classification_date' ) ;
#117 = EDGE_LOOP ( 'NONE', ( #26 ) ) ;
#118 = EDGE_CURVE ( 'NONE', #69, #69, #99, .T. ) ;
#119 = EDGE_LOOP ( 'NONE', ( #104 ) ) ;
#120 = CARTESIAN_POINT ( 'NONE',  ( 4.314354521906393962E-14, -1.116037995874064443E-15, 12.35680246635919666 ) ) ;
#121 = ORGANIZATION ( 'UNSPECIFIED', 'UNSPECIFIED', '' ) ;
#122 = AXIS2_PLACEMENT_3D ( 'NONE', #212, #197, #138 ) ;
#123 = CARTESIAN_POINT ( 'NONE',  ( 2.793185071074506684E-13, -7.225416114969383207E-15, 80.00000000000000000 ) ) ;
#124 = DIRECTION ( 'NONE',  ( -1.897145665327101662E-30, 1.000000000000000000, -5.524127916875874821E-16 ) ) ;
#125 = CARTESIAN_POINT ( 'NONE',  ( 1.396592535537259061E-15, 2.191709609014787318E-16, 0.4000000000000016320 ) ) ;
#126 = AXIS2_PLACEMENT_3D ( 'NONE', #196, #33, #163 ) ;
#127 = CC_DESIGN_PERSON_AND_ORGANIZATION_ASSIGNMENT ( #188, #241, ( #112 ) ) ;
#128 = DIRECTION ( 'NONE',  ( 0.0000000000000000000, 1.000000000000000000, 0.0000000000000000000 ) ) ;
#129 = VERTEX_POINT ( 'NONE', #222 ) ;
#130 = DATE_AND_TIME ( #184, #37 ) ;
#131 = APPROVAL_STATUS ( 'not_yet_approved' ) ;
#132 = PERSON_AND_ORGANIZATION ( #149, #121 ) ;
#133 = APPROVAL_PERSON_ORGANIZATION ( #167, #225, #150 ) ;
#134 = CALENDAR_DATE ( 2021, 26, 11 ) ;
#135 = EDGE_CURVE ( 'NONE', #129, #129, #73, .T. ) ;
#136 = AXIS2_PLACEMENT_3D ( 'NONE', #31, #84, #5 ) ;
#137 = FACE_BOUND ( 'NONE', #12, .T. ) ;
#138 = DIRECTION ( 'NONE',  ( 0.0000000000000000000, 1.000000000000000000, 0.0000000000000000000 ) ) ;
#139 = PRODUCT_DEFINITION_FORMATION_WITH_SPECIFIED_SOURCE ( 'ANY', '', #168, .NOT_KNOWN. ) ;
#140 = AXIS2_PLACEMENT_3D ( 'NONE', #123, #65, #62 ) ;
#141 = PLANE ( 'NONE',  #102 ) ;
#142 = FACE_OUTER_BOUND ( 'NONE', #117, .T. ) ;
#143 = CC_DESIGN_PERSON_AND_ORGANIZATION_ASSIGNMENT ( #206, #238, ( #139 ) ) ;
#144 = FACE_OUTER_BOUND ( 'NONE', #71, .T. ) ;
#145 = CARTESIAN_POINT ( 'NONE',  ( 0.0000000000000000000, 0.0000000000000000000, 0.0000000000000000000 ) ) ;
#146 = EDGE_LOOP ( 'NONE', ( #24 ) ) ;
#147 = PLANE ( 'NONE',  #204 ) ;
#148 = VERTEX_POINT ( 'NONE', #54 ) ;
#149 = PERSON ( 'UNSPECIFIED', 'UNSPECIFIED', 'UNSPECIFIED', ('UNSPECIFIED'), ('UNSPECIFIED'), ('UNSPECIFIED') ) ;
#150 = APPROVAL_ROLE ( '' ) ;
#151 = ORIENTED_EDGE ( 'NONE', *, *, #118, .F. ) ;
#152 = ADVANCED_FACE ( 'NONE', ( #178, #89 ), #30, .T. ) ;
#153 = DATE_AND_TIME ( #59, #154 ) ;
#154 = LOCAL_TIME ( 11, 4, 23.00000000000000000, #243 ) ;
#155 = CIRCLE ( 'NONE', #217, 2.713059892324149125 ) ;
#156 = ORIENTED_EDGE ( 'NONE', *, *, #135, .F. ) ;
#157 = DIRECTION ( 'NONE',  ( -1.913078300009569026E-30, 1.000000000000000000, -5.479274022536945369E-16 ) ) ;
#158 = FACE_BOUND ( 'NONE', #183, .T. ) ;
#159 = PLANE ( 'NONE',  #179 ) ;
#160 = LOCAL_TIME ( 11, 4, 23.00000000000000000, #164 ) ;
#161 = CARTESIAN_POINT ( 'NONE',  ( 4.314354521906394593E-14, 2.943999999999998618, 12.35680246635919843 ) ) ;
#162 = EDGE_CURVE ( 'NONE', #219, #219, #165, .T. ) ;
#163 = DIRECTION ( 'NONE',  ( 3.153425691349006731E-31, 1.000000000000000000, 9.031770143711729009E-17 ) ) ;
#164 = COORDINATED_UNIVERSAL_TIME_OFFSET ( 1, 0, .AHEAD. ) ;
#165 = CIRCLE ( 'NONE', #193, 1.999999999999995337 ) ;
#166 = CARTESIAN_POINT ( 'NONE',  ( 4.314354521906393962E-14, 2.943999999999998618, 12.35680246635919666 ) ) ;
#167 = PERSON_AND_ORGANIZATION ( #149, #121 ) ;
#168 = PRODUCT ( '321492', '321492', '', ( #115 ) ) ;
#169 =( NAMED_UNIT ( * ) SI_UNIT ( $, .STERADIAN. ) SOLID_ANGLE_UNIT ( ) );
#170 = ADVANCED_FACE ( 'NONE', ( #198, #158 ), #90, .T. ) ;
#171 = APPROVAL_PERSON_ORGANIZATION ( #181, #186, #237 ) ;
#172 = AXIS2_PLACEMENT_3D ( 'NONE', #120, #227, #128 ) ;
#173 = COORDINATED_UNIVERSAL_TIME_OFFSET ( 1, 0, .AHEAD. ) ;
#174 = FACE_OUTER_BOUND ( 'NONE', #60, .T. ) ;
#175 = DIRECTION ( 'NONE',  ( -3.491481338843133355E-15, 9.031770143711729009E-17, -1.000000000000000000 ) ) ;
#176 = MANIFOLD_SOLID_BREP ( 'Corps-Déplacer/Copier1[2]', #240 ) ;
#177 = ADVANCED_FACE ( 'NONE', ( #194 ), #88, .T. ) ;
#178 = FACE_OUTER_BOUND ( 'NONE', #58, .T. ) ;
#179 = AXIS2_PLACEMENT_3D ( 'NONE', #7, #47, #213 ) ;
#180 = DIRECTION ( 'NONE',  ( -2.093402113464392341E-30, 1.000000000000000000, -5.892403111334278834E-16 ) ) ;
#181 = PERSON_AND_ORGANIZATION ( #149, #121 ) ;
#182 = LOCAL_TIME ( 11, 4, 23.00000000000000000, #173 ) ;
#183 = EDGE_LOOP ( 'NONE', ( #25 ) ) ;
#184 = CALENDAR_DATE ( 2021, 26, 11 ) ;
#185 = PERSON_AND_ORGANIZATION_ROLE ( 'design_owner' ) ;
#186 = APPROVAL ( #9, 'UNSPECIFIED' ) ;
#187 = DESIGN_CONTEXT ( 'detailed design', #6, 'design' ) ;
#188 = PERSON_AND_ORGANIZATION ( #149, #121 ) ;
#189 = APPROVAL_DATE_TIME ( #153, #232 ) ;
#190 = CIRCLE ( 'NONE', #140, 1.599999999999994982 ) ;
#191 = ADVANCED_FACE ( 'NONE', ( #63, #195 ), #51, .T. ) ;
#192 = ORIENTED_EDGE ( 'NONE', *, *, #48, .F. ) ;
#193 = AXIS2_PLACEMENT_3D ( 'NONE', #45, #175, #4 ) ;
#194 = FACE_OUTER_BOUND ( 'NONE', #119, .T. ) ;
#195 = FACE_OUTER_BOUND ( 'NONE', #101, .T. ) ;
#196 = CARTESIAN_POINT ( 'NONE',  ( 0.0000000000000000000, 0.0000000000000000000, 0.0000000000000000000 ) ) ;
#197 = DIRECTION ( 'NONE',  ( -3.491481338843133355E-15, 9.031770143711729009E-17, -1.000000000000000000 ) ) ;
#198 = FACE_OUTER_BOUND ( 'NONE', #146, .T. ) ;
#199 = CARTESIAN_POINT ( 'NONE',  ( 4.314354521906393962E-14, 2.943999999999998618, 12.35680246635919666 ) ) ;
#200 = PRODUCT_DEFINITION ( 'UNKNOWN', '', #139, #187 ) ;
#201 = DIRECTION ( 'NONE',  ( 1.000000000000000000, 0.0000000000000000000, 0.0000000000000000000 ) ) ;
#202 = COORDINATED_UNIVERSAL_TIME_OFFSET ( 1, 0, .AHEAD. ) ;
#203 = CONICAL_SURFACE ( 'NONE', #122, 1.999999999999995337, 0.7853981633974516097 ) ;
#204 = AXIS2_PLACEMENT_3D ( 'NONE', #72, #221, #57 ) ;
#205 = DATE_AND_TIME ( #134, #160 ) ;
#206 = PERSON_AND_ORGANIZATION ( #149, #121 ) ;
#207 = EDGE_LOOP ( 'NONE', ( #209 ) ) ;
#208 = EDGE_CURVE ( 'NONE', #148, #148, #155, .T. ) ;
#209 = ORIENTED_EDGE ( 'NONE', *, *, #48, .T. ) ;
#210 = DIRECTION ( 'NONE',  ( 3.153425691349006731E-31, 1.000000000000000000, 9.031770143711729009E-17 ) ) ;
#211 = CARTESIAN_POINT ( 'NONE',  ( 0.0000000000000000000, 0.0000000000000000000, 0.0000000000000000000 ) ) ;
#212 = CARTESIAN_POINT ( 'NONE',  ( 2.779219145719134403E-13, -7.189289034394536528E-15, 79.60000000000000853 ) ) ;
#213 = DIRECTION ( 'NONE',  ( -3.153425691349006731E-31, -1.000000000000000000, -9.031770143711729009E-17 ) ) ;
#214 = PRODUCT_RELATED_PRODUCT_CATEGORY ( 'detail', '', ( #168 ) ) ;
#215 = DIRECTION ( 'NONE',  ( -3.491481338843133355E-15, 9.031770143711729009E-17, -1.000000000000000000 ) ) ;
#216 = LOCAL_TIME ( 11, 4, 23.00000000000000000, #10 ) ;
#217 = AXIS2_PLACEMENT_3D ( 'NONE', #110, #2, #157 ) ;
#218 = VERTEX_POINT ( 'NONE', #166 ) ;
#219 = VERTEX_POINT ( 'NONE', #95 ) ;
#220 = ADVANCED_FACE ( 'NONE', ( #226, #174 ), #105, .T. ) ;
#221 = DIRECTION ( 'NONE',  ( 3.491481338843133355E-15, 5.479274022536945369E-16, 1.000000000000000000 ) ) ;
#222 = CARTESIAN_POINT ( 'NONE',  ( 1.396592535537253539E-15, 2.943999999999998618, 0.4000000000000000222 ) ) ;
#223 = EDGE_LOOP ( 'NONE', ( #151 ) ) ;
#224 = CIRCLE ( 'NONE', #19, 2.943999999999991957 ) ;
#225 = APPROVAL ( #131, 'UNSPECIFIED' ) ;
#226 = FACE_OUTER_BOUND ( 'NONE', #207, .T. ) ;
#227 = DIRECTION ( 'NONE',  ( -3.491481338843133355E-15, 9.031770143711729009E-17, -1.000000000000000000 ) ) ;
#228 = APPLICATION_CONTEXT ( 'configuration controlled 3d designs of mechanical parts and assemblies' ) ;
#229 = CARTESIAN_POINT ( 'NONE',  ( 4.314354521906394593E-14, 6.770630675554241061E-15, 12.35680246635919843 ) ) ;
#230 = DIRECTION ( 'NONE',  ( -3.491481338843133355E-15, -5.479274022536945369E-16, -1.000000000000000000 ) ) ;
#231 = CARTESIAN_POINT ( 'NONE',  ( -2.595148003315814172E-30, 2.713059892324149125, -7.432799294799295772E-16 ) ) ;
#232 = APPROVAL ( #77, 'UNSPECIFIED' ) ;
#233 = CARTESIAN_POINT ( 'NONE',  ( 2.793185071074506684E-13, 1.599999999999987876, 80.00000000000000000 ) ) ;
#234 = PRODUCT_DEFINITION_SHAPE ( 'NONE', 'NONE',  #200 ) ;
#235 = APPROVAL_PERSON_ORGANIZATION ( #22, #232, #79 ) ;
#236 =( LENGTH_UNIT ( ) NAMED_UNIT ( * ) SI_UNIT ( .MILLI., .METRE. ) );
#237 = APPROVAL_ROLE ( '' ) ;
#238 = PERSON_AND_ORGANIZATION_ROLE ( 'design_supplier' ) ;
#239 =( GEOMETRIC_REPRESENTATION_CONTEXT ( 3 ) GLOBAL_UNCERTAINTY_ASSIGNED_CONTEXT ( ( #55 ) ) GLOBAL_UNIT_ASSIGNED_CONTEXT ( ( #236, #39, #169 ) ) REPRESENTATION_CONTEXT ( 'NONE', 'WORKASPACE' ) );
#240 = CLOSED_SHELL ( 'NONE', ( #242, #220, #170, #177 ) ) ;
#241 = PERSON_AND_ORGANIZATION_ROLE ( 'classification_officer' ) ;
#242 = ADVANCED_FACE ( 'NONE', ( #86 ), #147, .T. ) ;
#243 = COORDINATED_UNIVERSAL_TIME_OFFSET ( 1, 0, .AHEAD. ) ;
ENDSEC;
END-ISO-10303-21;
