ISO-10303-21;
HEADER;
FILE_DESCRIPTION (( 'STEP AP203' ),
    '1' );
FILE_NAME ('321491.step',
    '2021-11-26T10:04:22',
    ( '' ),
    ( '' ),
    'SwSTEP 2.0',
    'SolidWorks 2019',
    '' );
FILE_SCHEMA (( 'CONFIG_CONTROL_DESIGN' ));
ENDSEC;

DATA;
#1 = DIRECTION ( 'NONE',  ( -3.491481338843133355E-15, 9.031770143711729009E-17, -1.000000000000000000 ) ) ;
#2 = LOCAL_TIME ( 11, 4, 22.00000000000000000, #30 ) ;
#3 = COORDINATED_UNIVERSAL_TIME_OFFSET ( 1, 0, .AHEAD. ) ;
#4 = ORIENTED_EDGE ( 'NONE', *, *, #232, .F. ) ;
#5 = APPROVAL_STATUS ( 'not_yet_approved' ) ;
#6 = EDGE_LOOP ( 'NONE', ( #74 ) ) ;
#7 = DATE_TIME_ROLE ( 'classification_date' ) ;
#8 = CONICAL_SURFACE ( 'NONE', #116, 2.939000000000000057, 0.5235987755982929315 ) ;
#9 = EDGE_CURVE ( 'NONE', #77, #77, #31, .T. ) ;
#10 = ORIENTED_EDGE ( 'NONE', *, *, #240, .T. ) ;
#11 = MANIFOLD_SOLID_BREP ( 'Corps-Déplacer/Copier1[2]', #79 ) ;
#12 = AXIS2_PLACEMENT_3D ( 'NONE', #104, #103, #172 ) ;
#13 = CIRCLE ( 'NONE', #40, 2.938999999999998280 ) ;
#14 = FACE_OUTER_BOUND ( 'NONE', #138, .T. ) ;
#15 = CARTESIAN_POINT ( 'NONE',  ( 1.396592535537253539E-15, 2.938999999999998725, 0.4000000000000000222 ) ) ;
#16 = CARTESIAN_POINT ( 'NONE',  ( 0.0000000000000000000, 0.0000000000000000000, 0.0000000000000000000 ) ) ;
#17 = MANIFOLD_SOLID_BREP ( 'Corps-Déplacer/Copier1[1]', #238 ) ;
#18 = APPROVAL ( #32, 'UNSPECIFIED' ) ;
#19 = CARTESIAN_POINT ( 'NONE',  ( 2.793185071074506684E-13, -7.225416114969383207E-15, 80.00000000000000000 ) ) ;
#20 = AXIS2_PLACEMENT_3D ( 'NONE', #136, #239, #39 ) ;
#21 = PLANE ( 'NONE',  #241 ) ;
#22 = LOCAL_TIME ( 11, 4, 22.00000000000000000, #24 ) ;
#23 = EDGE_CURVE ( 'NONE', #135, #135, #195, .T. ) ;
#24 = COORDINATED_UNIVERSAL_TIME_OFFSET ( 1, 0, .AHEAD. ) ;
#25 = CARTESIAN_POINT ( 'NONE',  ( 2.779219145719134403E-13, -7.189289034394536528E-15, 79.60000000000000853 ) ) ;
#26 = ORIENTED_EDGE ( 'NONE', *, *, #23, .T. ) ;
#27 = APPROVAL_ROLE ( '' ) ;
#28 = AXIS2_PLACEMENT_3D ( 'NONE', #66, #1, #88 ) ;
#29 = PERSON_AND_ORGANIZATION ( #177, #231 ) ;
#30 = COORDINATED_UNIVERSAL_TIME_OFFSET ( 1, 0, .AHEAD. ) ;
#31 = CIRCLE ( 'NONE', #101, 2.939000000000000057 ) ;
#32 = APPROVAL_STATUS ( 'not_yet_approved' ) ;
#33 = EDGE_LOOP ( 'NONE', ( #10 ) ) ;
#34 = DIRECTION ( 'NONE',  ( 0.0000000000000000000, 1.000000000000000000, 0.0000000000000000000 ) ) ;
#35 = ADVANCED_FACE ( 'NONE', ( #234 ), #105, .T. ) ;
#36 = CARTESIAN_POINT ( 'NONE',  ( 4.317378233442670835E-14, 2.938999999999998725, 12.36546272039703886 ) ) ;
#37 = DIRECTION ( 'NONE',  ( -3.491481338843133355E-15, -5.473721184660581662E-16, -1.000000000000000000 ) ) ;
#38 = DIRECTION ( 'NONE',  ( -3.153425691349006731E-31, -1.000000000000000000, -9.031770143711729009E-17 ) ) ;
#39 = DIRECTION ( 'NONE',  ( -1.911139537027274912E-30, 1.000000000000000000, -5.473721184660581662E-16 ) ) ;
#40 = AXIS2_PLACEMENT_3D ( 'NONE', #221, #111, #82 ) ;
#41 = EDGE_LOOP ( 'NONE', ( #43 ) ) ;
#42 = DIRECTION ( 'NONE',  ( 0.0000000000000000000, 1.000000000000000000, 0.0000000000000000000 ) ) ;
#43 = ORIENTED_EDGE ( 'NONE', *, *, #232, .T. ) ;
#44 = APPROVAL_DATE_TIME ( #161, #118 ) ;
#45 = DIRECTION ( 'NONE',  ( 0.0000000000000000000, 1.000000000000000000, 0.0000000000000000000 ) ) ;
#46 =( GEOMETRIC_REPRESENTATION_CONTEXT ( 3 ) GLOBAL_UNCERTAINTY_ASSIGNED_CONTEXT ( ( #222 ) ) GLOBAL_UNIT_ASSIGNED_CONTEXT ( ( #170, #55, #207 ) ) REPRESENTATION_CONTEXT ( 'NONE', 'WORKASPACE' ) );
#47 = PRODUCT_DEFINITION ( 'UNKNOWN', '', #152, #113 ) ;
#48 = CALENDAR_DATE ( 2021, 26, 11 ) ;
#49 = CONICAL_SURFACE ( 'NONE', #12, 2.708059892324149232, 0.5235987755982969283 ) ;
#50 = PERSON_AND_ORGANIZATION_ROLE ( 'creator' ) ;
#51 = ORIENTED_EDGE ( 'NONE', *, *, #114, .F. ) ;
#52 = FACE_BOUND ( 'NONE', #110, .T. ) ;
#53 = CARTESIAN_POINT ( 'NONE',  ( -2.587740164429253294E-30, 2.708059892324149232, -7.411582400972174615E-16 ) ) ;
#54 = CC_DESIGN_APPROVAL ( #60, ( #47 ) ) ;
#55 =( NAMED_UNIT ( * ) PLANE_ANGLE_UNIT ( ) SI_UNIT ( $, .RADIAN. ) );
#56 = ADVANCED_FACE ( 'NONE', ( #215, #211 ), #49, .T. ) ;
#57 = PRODUCT ( '321491', '321491', '', ( #62 ) ) ;
#58 = DIRECTION ( 'NONE',  ( 0.0000000000000000000, 0.0000000000000000000, 1.000000000000000000 ) ) ;
#59 = AXIS2_PLACEMENT_3D ( 'NONE', #102, #81, #186 ) ;
#60 = APPROVAL ( #193, 'UNSPECIFIED' ) ;
#61 = PERSON_AND_ORGANIZATION ( #177, #231 ) ;
#62 = MECHANICAL_CONTEXT ( 'NONE', #73, 'mechanical' ) ;
#63 = CC_DESIGN_PERSON_AND_ORGANIZATION_ASSIGNMENT ( #61, #85, ( #57 ) ) ;
#64 = ORIENTED_EDGE ( 'NONE', *, *, #70, .F. ) ;
#65 = CARTESIAN_POINT ( 'NONE',  ( 0.0000000000000000000, 0.0000000000000000000, 0.0000000000000000000 ) ) ;
#66 = CARTESIAN_POINT ( 'NONE',  ( 2.793185071074506684E-13, -7.225416114969383207E-15, 80.00000000000000000 ) ) ;
#67 = DATE_AND_TIME ( #217, #120 ) ;
#68 = AXIS2_PLACEMENT_3D ( 'NONE', #119, #58, #214 ) ;
#69 = APPROVAL_DATE_TIME ( #218, #18 ) ;
#70 = EDGE_CURVE ( 'NONE', #133, #133, #156, .T. ) ;
#71 = DATE_AND_TIME ( #129, #2 ) ;
#72 = DATE_TIME_ROLE ( 'creation_date' ) ;
#73 = APPLICATION_CONTEXT ( 'configuration controlled 3d designs of mechanical parts and assemblies' ) ;
#74 = ORIENTED_EDGE ( 'NONE', *, *, #114, .T. ) ;
#75 = ADVANCED_BREP_SHAPE_REPRESENTATION ( '321491', ( #17, #11, #68 ), #46 ) ;
#76 = DIRECTION ( 'NONE',  ( 0.0000000000000000000, 1.000000000000000000, 0.0000000000000000000 ) ) ;
#77 = VERTEX_POINT ( 'NONE', #36 ) ;
#78 = FACE_OUTER_BOUND ( 'NONE', #94, .T. ) ;
#79 = CLOSED_SHELL ( 'NONE', ( #108, #144, #56, #134 ) ) ;
#80 = SECURITY_CLASSIFICATION ( '', '', #109 ) ;
#81 = DIRECTION ( 'NONE',  ( -3.491481338843133355E-15, -5.473721184660581662E-16, -1.000000000000000000 ) ) ;
#82 = DIRECTION ( 'NONE',  ( -1.900373201334803252E-30, 1.000000000000000000, -5.533525888833813275E-16 ) ) ;
#83 = CC_DESIGN_SECURITY_CLASSIFICATION ( #80, ( #152 ) ) ;
#84 = DIRECTION ( 'NONE',  ( -3.491481338843133355E-15, 9.031770143711729009E-17, -1.000000000000000000 ) ) ;
#85 = PERSON_AND_ORGANIZATION_ROLE ( 'design_owner' ) ;
#86 = AXIS2_PLACEMENT_3D ( 'NONE', #124, #178, #174 ) ;
#87 = CONICAL_SURFACE ( 'NONE', #171, 1.999999999999995337, 0.7853981633974516097 ) ;
#88 = DIRECTION ( 'NONE',  ( 0.0000000000000000000, 1.000000000000000000, 0.0000000000000000000 ) ) ;
#89 = CALENDAR_DATE ( 2021, 26, 11 ) ;
#90 = EDGE_LOOP ( 'NONE', ( #164 ) ) ;
#91 = APPROVAL_ROLE ( '' ) ;
#92 = CIRCLE ( 'NONE', #20, 2.708059892324149232 ) ;
#93 = SHAPE_DEFINITION_REPRESENTATION ( #201, #75 ) ;
#94 = EDGE_LOOP ( 'NONE', ( #197 ) ) ;
#95 = EDGE_LOOP ( 'NONE', ( #139 ) ) ;
#96 = AXIS2_PLACEMENT_3D ( 'NONE', #25, #230, #45 ) ;
#97 = DIRECTION ( 'NONE',  ( -1.911139537027274912E-30, 1.000000000000000000, -5.473721184660581662E-16 ) ) ;
#98 = CC_DESIGN_PERSON_AND_ORGANIZATION_ASSIGNMENT ( #127, #130, ( #152 ) ) ;
#99 = CARTESIAN_POINT ( 'NONE',  ( 2.793185071074506684E-13, 1.599999999999987876, 80.00000000000000000 ) ) ;
#100 = PLANE ( 'NONE',  #188 ) ;
#101 = AXIS2_PLACEMENT_3D ( 'NONE', #235, #126, #76 ) ;
#102 = CARTESIAN_POINT ( 'NONE',  ( 4.317378233442671466E-14, 6.768509525076794917E-15, 12.36546272039704064 ) ) ;
#103 = DIRECTION ( 'NONE',  ( 3.491481338843133355E-15, 5.473721184660581662E-16, 1.000000000000000000 ) ) ;
#104 = CARTESIAN_POINT ( 'NONE',  ( 5.175480328858506588E-30, 8.113787120011784759E-31, 1.482316480194434923E-15 ) ) ;
#105 = PLANE ( 'NONE',  #226 ) ;
#106 = COORDINATED_UNIVERSAL_TIME_OFFSET ( 1, 0, .AHEAD. ) ;
#107 = DIRECTION ( 'NONE',  ( -3.491481338843133355E-15, 9.031770143711729009E-17, -1.000000000000000000 ) ) ;
#108 = ADVANCED_FACE ( 'NONE', ( #155 ), #225, .T. ) ;
#109 = SECURITY_CLASSIFICATION_LEVEL ( 'unclassified' ) ;
#110 = EDGE_LOOP ( 'NONE', ( #121 ) ) ;
#111 = DIRECTION ( 'NONE',  ( -3.491481338843133355E-15, -5.473721184660581662E-16, -1.000000000000000000 ) ) ;
#112 = CYLINDRICAL_SURFACE ( 'NONE', #227, 2.938999999999995616 ) ;
#113 = DESIGN_CONTEXT ( 'detailed design', #154, 'design' ) ;
#114 = EDGE_CURVE ( 'NONE', #204, #204, #163, .T. ) ;
#115 = DIRECTION ( 'NONE',  ( -3.491481338843133355E-15, 9.031770143711729009E-17, -1.000000000000000000 ) ) ;
#116 = AXIS2_PLACEMENT_3D ( 'NONE', #168, #237, #34 ) ;
#117 = FACE_OUTER_BOUND ( 'NONE', #213, .T. ) ;
#118 = APPROVAL ( #5, 'UNSPECIFIED' ) ;
#119 = CARTESIAN_POINT ( 'NONE',  ( 0.0000000000000000000, 0.0000000000000000000, 0.0000000000000000000 ) ) ;
#120 = LOCAL_TIME ( 11, 4, 22.00000000000000000, #229 ) ;
#121 = ORIENTED_EDGE ( 'NONE', *, *, #70, .T. ) ;
#122 = ORIENTED_EDGE ( 'NONE', *, *, #162, .T. ) ;
#123 = PERSON_AND_ORGANIZATION ( #177, #231 ) ;
#124 = CARTESIAN_POINT ( 'NONE',  ( 4.317378233442671466E-14, 6.768509525076796494E-15, 12.36546272039704064 ) ) ;
#125 = CC_DESIGN_APPROVAL ( #18, ( #152 ) ) ;
#126 = DIRECTION ( 'NONE',  ( -3.491481338843133355E-15, 9.031770143711729009E-17, -1.000000000000000000 ) ) ;
#127 = PERSON_AND_ORGANIZATION ( #177, #231 ) ;
#128 = ADVANCED_FACE ( 'NONE', ( #159, #228 ), #141, .T. ) ;
#129 = CALENDAR_DATE ( 2021, 26, 11 ) ;
#130 = PERSON_AND_ORGANIZATION_ROLE ( 'creator' ) ;
#131 = DIRECTION ( 'NONE',  ( 3.153425691349006731E-31, 1.000000000000000000, 9.031770143711729009E-17 ) ) ;
#132 = FACE_OUTER_BOUND ( 'NONE', #165, .T. ) ;
#133 = VERTEX_POINT ( 'NONE', #169 ) ;
#134 = ADVANCED_FACE ( 'NONE', ( #132 ), #21, .T. ) ;
#135 = VERTEX_POINT ( 'NONE', #150 ) ;
#136 = CARTESIAN_POINT ( 'NONE',  ( 5.175480328858506588E-30, 8.113787120011784759E-31, 1.482316480194434923E-15 ) ) ;
#137 = DIRECTION ( 'NONE',  ( -1.911139537027274912E-30, 1.000000000000000000, -5.473721184660581662E-16 ) ) ;
#138 = EDGE_LOOP ( 'NONE', ( #4 ) ) ;
#139 = ORIENTED_EDGE ( 'NONE', *, *, #162, .F. ) ;
#140 = PERSON_AND_ORGANIZATION ( #177, #231 ) ;
#141 = CYLINDRICAL_SURFACE ( 'NONE', #148, 1.999999999999993561 ) ;
#142 = PERSON_AND_ORGANIZATION ( #177, #231 ) ;
#143 = APPROVAL_DATE_TIME ( #176, #60 ) ;
#144 = ADVANCED_FACE ( 'NONE', ( #166, #14 ), #112, .T. ) ;
#145 = CALENDAR_DATE ( 2021, 26, 11 ) ;
#146 = PERSON_AND_ORGANIZATION ( #177, #231 ) ;
#147 = EDGE_LOOP ( 'NONE', ( #175 ) ) ;
#148 = AXIS2_PLACEMENT_3D ( 'NONE', #65, #194, #216 ) ;
#149 = APPLICATION_PROTOCOL_DEFINITION ( 'international standard', 'config_control_design', 1994, #73 ) ;
#150 = CARTESIAN_POINT ( 'NONE',  ( 2.779219145719134403E-13, 1.999999999999988010, 79.60000000000000853 ) ) ;
#151 = DIRECTION ( 'NONE',  ( 3.491481338843133355E-15, -9.031770143711729009E-17, 1.000000000000000000 ) ) ;
#152 = PRODUCT_DEFINITION_FORMATION_WITH_SPECIFIED_SOURCE ( 'ANY', '', #57, .NOT_KNOWN. ) ;
#153 = VERTEX_POINT ( 'NONE', #208 ) ;
#154 = APPLICATION_CONTEXT ( 'configuration controlled 3d designs of mechanical parts and assemblies' ) ;
#155 = FACE_OUTER_BOUND ( 'NONE', #90, .T. ) ;
#156 = CIRCLE ( 'NONE', #187, 1.999999999999991784 ) ;
#157 = LOCAL_TIME ( 11, 4, 22.00000000000000000, #3 ) ;
#158 = APPLICATION_PROTOCOL_DEFINITION ( 'international standard', 'config_control_design', 1994, #154 ) ;
#159 = FACE_OUTER_BOUND ( 'NONE', #192, .T. ) ;
#160 = EDGE_LOOP ( 'NONE', ( #181 ) ) ;
#161 = DATE_AND_TIME ( #145, #157 ) ;
#162 = EDGE_CURVE ( 'NONE', #153, #153, #92, .T. ) ;
#163 = CIRCLE ( 'NONE', #28, 1.599999999999994982 ) ;
#164 = ORIENTED_EDGE ( 'NONE', *, *, #240, .F. ) ;
#165 = EDGE_LOOP ( 'NONE', ( #122 ) ) ;
#166 = FACE_OUTER_BOUND ( 'NONE', #33, .T. ) ;
#167 = VERTEX_POINT ( 'NONE', #189 ) ;
#168 = CARTESIAN_POINT ( 'NONE',  ( 4.317378233442670835E-14, -1.116820170112623937E-15, 12.36546272039703886 ) ) ;
#169 = CARTESIAN_POINT ( 'NONE',  ( 4.885231259955590439E-14, 1.999999999999990452, 13.99185842870425134 ) ) ;
#170 =( LENGTH_UNIT ( ) NAMED_UNIT ( * ) SI_UNIT ( .MILLI., .METRE. ) );
#171 = AXIS2_PLACEMENT_3D ( 'NONE', #220, #115, #236 ) ;
#172 = DIRECTION ( 'NONE',  ( 1.911139537027274912E-30, -1.000000000000000000, 5.473721184660581662E-16 ) ) ;
#173 = CC_DESIGN_PERSON_AND_ORGANIZATION_ASSIGNMENT ( #233, #50, ( #47 ) ) ;
#174 = DIRECTION ( 'NONE',  ( 1.911139537027274912E-30, -1.000000000000000000, 5.473721184660581662E-16 ) ) ;
#175 = ORIENTED_EDGE ( 'NONE', *, *, #23, .F. ) ;
#176 = DATE_AND_TIME ( #89, #22 ) ;
#177 = PERSON ( 'UNSPECIFIED', 'UNSPECIFIED', 'UNSPECIFIED', ('UNSPECIFIED'), ('UNSPECIFIED'), ('UNSPECIFIED') ) ;
#178 = DIRECTION ( 'NONE',  ( 3.491481338843133355E-15, 5.473721184660581662E-16, 1.000000000000000000 ) ) ;
#179 = APPROVAL_PERSON_ORGANIZATION ( #140, #118, #91 ) ;
#180 = LOCAL_TIME ( 11, 4, 22.00000000000000000, #106 ) ;
#181 = ORIENTED_EDGE ( 'NONE', *, *, #9, .T. ) ;
#182 = CC_DESIGN_DATE_AND_TIME_ASSIGNMENT ( #71, #7, ( #80 ) ) ;
#183 = FACE_BOUND ( 'NONE', #6, .T. ) ;
#184 = APPROVAL_PERSON_ORGANIZATION ( #142, #18, #199 ) ;
#185 = VERTEX_POINT ( 'NONE', #15 ) ;
#186 = DIRECTION ( 'NONE',  ( -2.096963532507373551E-30, 1.000000000000000000, -5.902427614756079063E-16 ) ) ;
#187 = AXIS2_PLACEMENT_3D ( 'NONE', #243, #84, #42 ) ;
#188 = AXIS2_PLACEMENT_3D ( 'NONE', #19, #151, #38 ) ;
#189 = CARTESIAN_POINT ( 'NONE',  ( 4.317378233442670835E-14, 2.938999999999998725, 12.36546272039703886 ) ) ;
#190 = CC_DESIGN_PERSON_AND_ORGANIZATION_ASSIGNMENT ( #146, #196, ( #80 ) ) ;
#191 = EDGE_LOOP ( 'NONE', ( #64 ) ) ;
#192 = EDGE_LOOP ( 'NONE', ( #26 ) ) ;
#193 = APPROVAL_STATUS ( 'not_yet_approved' ) ;
#194 = DIRECTION ( 'NONE',  ( -3.491481338843133355E-15, 9.031770143711729009E-17, -1.000000000000000000 ) ) ;
#195 = CIRCLE ( 'NONE', #96, 1.999999999999995337 ) ;
#196 = PERSON_AND_ORGANIZATION_ROLE ( 'classification_officer' ) ;
#197 = ORIENTED_EDGE ( 'NONE', *, *, #9, .F. ) ;
#198 = PERSON_AND_ORGANIZATION_ROLE ( 'design_supplier' ) ;
#199 = APPROVAL_ROLE ( '' ) ;
#200 = ADVANCED_FACE ( 'NONE', ( #117 ), #100, .T. ) ;
#201 = PRODUCT_DEFINITION_SHAPE ( 'NONE', 'NONE',  #47 ) ;
#202 = CARTESIAN_POINT ( 'NONE',  ( 4.317378233442671466E-14, 2.938999999999998725, 12.36546272039704064 ) ) ;
#203 = DIRECTION ( 'NONE',  ( -3.491481338843133355E-15, -5.473721184660581662E-16, -1.000000000000000000 ) ) ;
#204 = VERTEX_POINT ( 'NONE', #99 ) ;
#205 = APPROVAL_PERSON_ORGANIZATION ( #123, #60, #27 ) ;
#206 = ADVANCED_FACE ( 'NONE', ( #183, #209 ), #87, .T. ) ;
#207 =( NAMED_UNIT ( * ) SI_UNIT ( $, .STERADIAN. ) SOLID_ANGLE_UNIT ( ) );
#208 = CARTESIAN_POINT ( 'NONE',  ( 0.0000000000000000000, 2.708059892324149232, 0.0000000000000000000 ) ) ;
#209 = FACE_OUTER_BOUND ( 'NONE', #147, .T. ) ;
#210 = CC_DESIGN_DATE_AND_TIME_ASSIGNMENT ( #67, #72, ( #47 ) ) ;
#211 = FACE_BOUND ( 'NONE', #95, .T. ) ;
#212 = CC_DESIGN_APPROVAL ( #118, ( #80 ) ) ;
#213 = EDGE_LOOP ( 'NONE', ( #51 ) ) ;
#214 = DIRECTION ( 'NONE',  ( 1.000000000000000000, 0.0000000000000000000, 0.0000000000000000000 ) ) ;
#215 = FACE_OUTER_BOUND ( 'NONE', #41, .T. ) ;
#216 = DIRECTION ( 'NONE',  ( 3.153425691349006731E-31, 1.000000000000000000, 9.031770143711729009E-17 ) ) ;
#217 = CALENDAR_DATE ( 2021, 26, 11 ) ;
#218 = DATE_AND_TIME ( #48, #180 ) ;
#219 = CIRCLE ( 'NONE', #59, 2.938999999999992063 ) ;
#220 = CARTESIAN_POINT ( 'NONE',  ( 2.779219145719134403E-13, -7.189289034394536528E-15, 79.60000000000000853 ) ) ;
#221 = CARTESIAN_POINT ( 'NONE',  ( 1.396592535537259061E-15, 2.189488473864241441E-16, 0.4000000000000016320 ) ) ;
#222 = UNCERTAINTY_MEASURE_WITH_UNIT (LENGTH_MEASURE( 1.000000000000000082E-05 ), #170, 'distance_accuracy_value', 'NONE');
#223 = ADVANCED_FACE ( 'NONE', ( #52, #78 ), #8, .T. ) ;
#224 = CC_DESIGN_PERSON_AND_ORGANIZATION_ASSIGNMENT ( #29, #198, ( #152 ) ) ;
#225 = PLANE ( 'NONE',  #86 ) ;
#226 = AXIS2_PLACEMENT_3D ( 'NONE', #202, #107, #131 ) ;
#227 = AXIS2_PLACEMENT_3D ( 'NONE', #16, #203, #97 ) ;
#228 = FACE_OUTER_BOUND ( 'NONE', #191, .T. ) ;
#229 = COORDINATED_UNIVERSAL_TIME_OFFSET ( 1, 0, .AHEAD. ) ;
#230 = DIRECTION ( 'NONE',  ( -3.491481338843133355E-15, 9.031770143711729009E-17, -1.000000000000000000 ) ) ;
#231 = ORGANIZATION ( 'UNSPECIFIED', 'UNSPECIFIED', '' ) ;
#232 = EDGE_CURVE ( 'NONE', #185, #185, #13, .T. ) ;
#233 = PERSON_AND_ORGANIZATION ( #177, #231 ) ;
#234 = FACE_OUTER_BOUND ( 'NONE', #160, .T. ) ;
#235 = CARTESIAN_POINT ( 'NONE',  ( 4.317378233442670835E-14, -1.116820170112623937E-15, 12.36546272039703886 ) ) ;
#236 = DIRECTION ( 'NONE',  ( 0.0000000000000000000, 1.000000000000000000, 0.0000000000000000000 ) ) ;
#237 = DIRECTION ( 'NONE',  ( -3.491481338843133355E-15, 9.031770143711729009E-17, -1.000000000000000000 ) ) ;
#238 = CLOSED_SHELL ( 'NONE', ( #200, #206, #128, #223, #35 ) ) ;
#239 = DIRECTION ( 'NONE',  ( -3.491481338843133355E-15, -5.473721184660581662E-16, -1.000000000000000000 ) ) ;
#240 = EDGE_CURVE ( 'NONE', #167, #167, #219, .T. ) ;
#241 = AXIS2_PLACEMENT_3D ( 'NONE', #53, #37, #137 ) ;
#242 = PRODUCT_RELATED_PRODUCT_CATEGORY ( 'detail', '', ( #57 ) ) ;
#243 = CARTESIAN_POINT ( 'NONE',  ( 4.885231259955590439E-14, -1.263712492114123682E-15, 13.99185842870425134 ) ) ;
ENDSEC;
END-ISO-10303-21;
