ISO-10303-21;
HEADER;
FILE_DESCRIPTION (( 'STEP AP203' ),
    '1' );
FILE_NAME ('321490.step',
    '2021-11-26T10:04:21',
    ( '' ),
    ( '' ),
    'SwSTEP 2.0',
    'SolidWorks 2019',
    '' );
FILE_SCHEMA (( 'CONFIG_CONTROL_DESIGN' ));
ENDSEC;

DATA;
#1 = APPLICATION_PROTOCOL_DEFINITION ( 'international standard', 'config_control_design', 1994, #54 ) ;
#2 = MANIFOLD_SOLID_BREP ( 'Corps-Déplacer/Copier1[2]', #5 ) ;
#3 = APPROVAL_ROLE ( '' ) ;
#4 = PERSON_AND_ORGANIZATION_ROLE ( 'creator' ) ;
#5 = CLOSED_SHELL ( 'NONE', ( #137, #173, #162, #119 ) ) ;
#6 = EDGE_LOOP ( 'NONE', ( #12 ) ) ;
#7 = EDGE_CURVE ( 'NONE', #112, #112, #139, .T. ) ;
#8 = ORIENTED_EDGE ( 'NONE', *, *, #17, .T. ) ;
#9 = APPROVAL_DATE_TIME ( #176, #77 ) ;
#10 = CARTESIAN_POINT ( 'NONE',  ( 5.160691374162266945E-30, 8.082405888093093655E-31, 1.478080755222426443E-15 ) ) ;
#11 = CIRCLE ( 'NONE', #99, 1.999999999999991784 ) ;
#12 = ORIENTED_EDGE ( 'NONE', *, *, #49, .F. ) ;
#13 = ORIENTED_EDGE ( 'NONE', *, *, #17, .F. ) ;
#14 = DIRECTION ( 'NONE',  ( -3.491481338843133355E-15, -5.468176119292498806E-16, -1.000000000000000000 ) ) ;
#15 = AXIS2_PLACEMENT_3D ( 'NONE', #131, #109, #55 ) ;
#16 = DIRECTION ( 'NONE',  ( 1.909203487801742357E-30, -1.000000000000000000, 5.468176119292498806E-16 ) ) ;
#17 = EDGE_CURVE ( 'NONE', #188, #188, #166, .T. ) ;
#18 = DIRECTION ( 'NONE',  ( -3.491481338843133355E-15, -5.468176119292498806E-16, -1.000000000000000000 ) ) ;
#19 = DIRECTION ( 'NONE',  ( 1.909203487801742357E-30, -1.000000000000000000, 5.468176119292498806E-16 ) ) ;
#20 = PLANE ( 'NONE',  #57 ) ;
#21 = PERSON_AND_ORGANIZATION ( #213, #136 ) ;
#22 = PERSON_AND_ORGANIZATION ( #213, #136 ) ;
#23 = CLOSED_SHELL ( 'NONE', ( #88, #33, #242, #146, #60 ) ) ;
#24 = CC_DESIGN_APPROVAL ( #208, ( #191 ) ) ;
#25 = CC_DESIGN_PERSON_AND_ORGANIZATION_ASSIGNMENT ( #207, #154, ( #191 ) ) ;
#26 = EDGE_LOOP ( 'NONE', ( #179 ) ) ;
#27 = PERSON_AND_ORGANIZATION_ROLE ( 'design_owner' ) ;
#28 = EDGE_LOOP ( 'NONE', ( #142 ) ) ;
#29 = DIRECTION ( 'NONE',  ( -3.491481338843133355E-15, 9.031770143711729009E-17, -1.000000000000000000 ) ) ;
#30 = CYLINDRICAL_SURFACE ( 'NONE', #38, 1.999999999999993561 ) ;
#31 = ADVANCED_BREP_SHAPE_REPRESENTATION ( '321490', ( #165, #2, #239 ), #115 ) ;
#32 = DIRECTION ( 'NONE',  ( -3.491481338843133355E-15, 9.031770143711729009E-17, -1.000000000000000000 ) ) ;
#33 = ADVANCED_FACE ( 'NONE', ( #196, #87 ), #178, .T. ) ;
#34 = VERTEX_POINT ( 'NONE', #186 ) ;
#35 = DIRECTION ( 'NONE',  ( 3.491481338843133355E-15, 5.468176119292498806E-16, 1.000000000000000000 ) ) ;
#36 = CARTESIAN_POINT ( 'NONE',  ( -2.580345687081133473E-30, 2.703059892324148894, -7.390403776112132215E-16 ) ) ;
#37 = AXIS2_PLACEMENT_3D ( 'NONE', #212, #214, #193 ) ;
#38 = AXIS2_PLACEMENT_3D ( 'NONE', #184, #147, #163 ) ;
#39 = PRODUCT_DEFINITION_FORMATION_WITH_SPECIFIED_SOURCE ( 'ANY', '', #194, .NOT_KNOWN. ) ;
#40 = DATE_AND_TIME ( #65, #152 ) ;
#41 = PERSON_AND_ORGANIZATION_ROLE ( 'design_supplier' ) ;
#42 = PERSON_AND_ORGANIZATION ( #213, #136 ) ;
#43 = AXIS2_PLACEMENT_3D ( 'NONE', #201, #51, #240 ) ;
#44 = DIRECTION ( 'NONE',  ( 1.000000000000000000, 0.0000000000000000000, 0.0000000000000000000 ) ) ;
#45 = EDGE_CURVE ( 'NONE', #149, #149, #132, .T. ) ;
#46 = EDGE_LOOP ( 'NONE', ( #138 ) ) ;
#47 = CARTESIAN_POINT ( 'NONE',  ( 1.396592535537259061E-15, 2.187270447717008644E-16, 0.4000000000000016320 ) ) ;
#48 = DIRECTION ( 'NONE',  ( -1.903611737806062246E-30, 1.000000000000000000, -5.542955892052684505E-16 ) ) ;
#49 = EDGE_CURVE ( 'NONE', #34, #34, #204, .T. ) ;
#50 = PLANE ( 'NONE',  #170 ) ;
#51 = DIRECTION ( 'NONE',  ( -3.491481338843133355E-15, 9.031770143711729009E-17, -1.000000000000000000 ) ) ;
#52 = PRODUCT_DEFINITION_SHAPE ( 'NONE', 'NONE',  #199 ) ;
#53 = CARTESIAN_POINT ( 'NONE',  ( 4.320401944978948339E-14, 2.933999999999998831, 12.37412297443488285 ) ) ;
#54 = APPLICATION_CONTEXT ( 'configuration controlled 3d designs of mechanical parts and assemblies' ) ;
#55 = DIRECTION ( 'NONE',  ( 0.0000000000000000000, 1.000000000000000000, 0.0000000000000000000 ) ) ;
#56 = FACE_OUTER_BOUND ( 'NONE', #180, .T. ) ;
#57 = AXIS2_PLACEMENT_3D ( 'NONE', #203, #164, #19 ) ;
#58 = APPLICATION_CONTEXT ( 'configuration controlled 3d designs of mechanical parts and assemblies' ) ;
#59 = PERSON_AND_ORGANIZATION_ROLE ( 'creator' ) ;
#60 = ADVANCED_FACE ( 'NONE', ( #175 ), #50, .T. ) ;
#61 = COORDINATED_UNIVERSAL_TIME_OFFSET ( 1, 0, .AHEAD. ) ;
#62 = APPROVAL_PERSON_ORGANIZATION ( #22, #77, #192 ) ;
#63 = ORIENTED_EDGE ( 'NONE', *, *, #216, .F. ) ;
#64 = CIRCLE ( 'NONE', #126, 2.934000000000000163 ) ;
#65 = CALENDAR_DATE ( 2021, 26, 11 ) ;
#66 = EDGE_LOOP ( 'NONE', ( #8 ) ) ;
#67 = AXIS2_PLACEMENT_3D ( 'NONE', #198, #29, #107 ) ;
#68 = APPROVAL_PERSON_ORGANIZATION ( #42, #208, #3 ) ;
#69 = CC_DESIGN_PERSON_AND_ORGANIZATION_ASSIGNMENT ( #225, #41, ( #39 ) ) ;
#70 = CARTESIAN_POINT ( 'NONE',  ( 0.0000000000000000000, 0.0000000000000000000, 0.0000000000000000000 ) ) ;
#71 = FACE_OUTER_BOUND ( 'NONE', #66, .T. ) ;
#72 = DIRECTION ( 'NONE',  ( -1.909203487801742357E-30, 1.000000000000000000, -5.468176119292498806E-16 ) ) ;
#73 = FACE_OUTER_BOUND ( 'NONE', #86, .T. ) ;
#74 = DIRECTION ( 'NONE',  ( 0.0000000000000000000, 1.000000000000000000, 0.0000000000000000000 ) ) ;
#75 = SECURITY_CLASSIFICATION_LEVEL ( 'unclassified' ) ;
#76 = LOCAL_TIME ( 11, 4, 21.00000000000000000, #151 ) ;
#77 = APPROVAL ( #100, 'UNSPECIFIED' ) ;
#78 = CALENDAR_DATE ( 2021, 26, 11 ) ;
#79 = COORDINATED_UNIVERSAL_TIME_OFFSET ( 1, 0, .AHEAD. ) ;
#80 = ORIENTED_EDGE ( 'NONE', *, *, #98, .T. ) ;
#81 = CALENDAR_DATE ( 2021, 26, 11 ) ;
#82 = COORDINATED_UNIVERSAL_TIME_OFFSET ( 1, 0, .AHEAD. ) ;
#83 = AXIS2_PLACEMENT_3D ( 'NONE', #10, #105, #232 ) ;
#84 = LOCAL_TIME ( 11, 4, 21.00000000000000000, #79 ) ;
#85 = ORIENTED_EDGE ( 'NONE', *, *, #216, .T. ) ;
#86 = EDGE_LOOP ( 'NONE', ( #144 ) ) ;
#87 = FACE_OUTER_BOUND ( 'NONE', #6, .T. ) ;
#88 = ADVANCED_FACE ( 'NONE', ( #125 ), #237, .T. ) ;
#89 = AXIS2_PLACEMENT_3D ( 'NONE', #36, #18, #96 ) ;
#90 = VERTEX_POINT ( 'NONE', #161 ) ;
#91 = CC_DESIGN_SECURITY_CLASSIFICATION ( #191, ( #39 ) ) ;
#92 = CARTESIAN_POINT ( 'NONE',  ( 4.885231259955590439E-14, -1.263712492114123682E-15, 13.99185842870425134 ) ) ;
#93 = PLANE ( 'NONE',  #89 ) ;
#94 = FACE_OUTER_BOUND ( 'NONE', #104, .T. ) ;
#95 = CC_DESIGN_APPROVAL ( #77, ( #199 ) ) ;
#96 = DIRECTION ( 'NONE',  ( -1.909203487801742357E-30, 1.000000000000000000, -5.468176119292498806E-16 ) ) ;
#97 =( NAMED_UNIT ( * ) SI_UNIT ( $, .STERADIAN. ) SOLID_ANGLE_UNIT ( ) );
#98 = EDGE_CURVE ( 'NONE', #110, #110, #233, .T. ) ;
#99 = AXIS2_PLACEMENT_3D ( 'NONE', #92, #32, #187 ) ;
#100 = APPROVAL_STATUS ( 'not_yet_approved' ) ;
#101 = DATE_TIME_ROLE ( 'creation_date' ) ;
#102 = AXIS2_PLACEMENT_3D ( 'NONE', #200, #218, #221 ) ;
#103 = AXIS2_PLACEMENT_3D ( 'NONE', #70, #14, #72 ) ;
#104 = EDGE_LOOP ( 'NONE', ( #63 ) ) ;
#105 = DIRECTION ( 'NONE',  ( -3.491481338843133355E-15, -5.468176119292498806E-16, -1.000000000000000000 ) ) ;
#106 = APPLICATION_PROTOCOL_DEFINITION ( 'international standard', 'config_control_design', 1994, #58 ) ;
#107 = DIRECTION ( 'NONE',  ( 0.0000000000000000000, 1.000000000000000000, 0.0000000000000000000 ) ) ;
#108 = CARTESIAN_POINT ( 'NONE',  ( -6.842277657836020854E-46, 2.703059892324148894, 0.0000000000000000000 ) ) ;
#109 = DIRECTION ( 'NONE',  ( -3.491481338843133355E-15, 9.031770143711729009E-17, -1.000000000000000000 ) ) ;
#110 = VERTEX_POINT ( 'NONE', #182 ) ;
#111 = FACE_OUTER_BOUND ( 'NONE', #211, .T. ) ;
#112 = VERTEX_POINT ( 'NONE', #167 ) ;
#113 = APPROVAL ( #140, 'UNSPECIFIED' ) ;
#114 = APPROVAL_STATUS ( 'not_yet_approved' ) ;
#115 =( GEOMETRIC_REPRESENTATION_CONTEXT ( 3 ) GLOBAL_UNCERTAINTY_ASSIGNED_CONTEXT ( ( #123 ) ) GLOBAL_UNIT_ASSIGNED_CONTEXT ( ( #133, #189, #97 ) ) REPRESENTATION_CONTEXT ( 'NONE', 'WORKASPACE' ) );
#116 = LOCAL_TIME ( 11, 4, 21.00000000000000000, #82 ) ;
#117 = MECHANICAL_CONTEXT ( 'NONE', #54, 'mechanical' ) ;
#118 = EDGE_LOOP ( 'NONE', ( #231 ) ) ;
#119 = ADVANCED_FACE ( 'NONE', ( #111 ), #93, .T. ) ;
#120 = COORDINATED_UNIVERSAL_TIME_OFFSET ( 1, 0, .AHEAD. ) ;
#121 = DIRECTION ( 'NONE',  ( -3.491481338843133355E-15, -5.468176119292498806E-16, -1.000000000000000000 ) ) ;
#122 = EDGE_LOOP ( 'NONE', ( #85 ) ) ;
#123 = UNCERTAINTY_MEASURE_WITH_UNIT (LENGTH_MEASURE( 1.000000000000000082E-05 ), #133, 'distance_accuracy_value', 'NONE');
#124 = EDGE_LOOP ( 'NONE', ( #80 ) ) ;
#125 = FACE_OUTER_BOUND ( 'NONE', #143, .T. ) ;
#126 = AXIS2_PLACEMENT_3D ( 'NONE', #219, #127, #74 ) ;
#127 = DIRECTION ( 'NONE',  ( -3.491481338843133355E-15, 9.031770143711729009E-17, -1.000000000000000000 ) ) ;
#128 = DIRECTION ( 'NONE',  ( 3.153425691349006731E-31, 1.000000000000000000, 9.031770143711729009E-17 ) ) ;
#129 = CARTESIAN_POINT ( 'NONE',  ( 5.160691374162266945E-30, 8.082405888093093655E-31, 1.478080755222426443E-15 ) ) ;
#130 = EDGE_CURVE ( 'NONE', #90, #90, #64, .T. ) ;
#131 = CARTESIAN_POINT ( 'NONE',  ( 4.320401944978948971E-14, -1.117602344351183824E-15, 12.37412297443488463 ) ) ;
#132 = CIRCLE ( 'NONE', #83, 2.703059892324148894 ) ;
#133 =( LENGTH_UNIT ( ) NAMED_UNIT ( * ) SI_UNIT ( .MILLI., .METRE. ) );
#134 = DATE_AND_TIME ( #153, #76 ) ;
#135 = CALENDAR_DATE ( 2021, 26, 11 ) ;
#136 = ORGANIZATION ( 'UNSPECIFIED', 'UNSPECIFIED', '' ) ;
#137 = ADVANCED_FACE ( 'NONE', ( #56 ), #20, .T. ) ;
#138 = ORIENTED_EDGE ( 'NONE', *, *, #45, .F. ) ;
#139 = CIRCLE ( 'NONE', #37, 2.933999999999991726 ) ;
#140 = APPROVAL_STATUS ( 'not_yet_approved' ) ;
#141 = ORIENTED_EDGE ( 'NONE', *, *, #7, .F. ) ;
#142 = ORIENTED_EDGE ( 'NONE', *, *, #130, .T. ) ;
#143 = EDGE_LOOP ( 'NONE', ( #160 ) ) ;
#144 = ORIENTED_EDGE ( 'NONE', *, *, #130, .F. ) ;
#145 = VERTEX_POINT ( 'NONE', #217 ) ;
#146 = ADVANCED_FACE ( 'NONE', ( #236, #73 ), #157, .T. ) ;
#147 = DIRECTION ( 'NONE',  ( -3.491481338843133355E-15, 9.031770143711729009E-17, -1.000000000000000000 ) ) ;
#148 = FACE_OUTER_BOUND ( 'NONE', #26, .T. ) ;
#149 = VERTEX_POINT ( 'NONE', #108 ) ;
#150 = DIRECTION ( 'NONE',  ( -3.491481338843133355E-15, 9.031770143711729009E-17, -1.000000000000000000 ) ) ;
#151 = COORDINATED_UNIVERSAL_TIME_OFFSET ( 1, 0, .AHEAD. ) ;
#152 = LOCAL_TIME ( 11, 4, 21.00000000000000000, #61 ) ;
#153 = CALENDAR_DATE ( 2021, 26, 11 ) ;
#154 = PERSON_AND_ORGANIZATION_ROLE ( 'classification_officer' ) ;
#155 = CC_DESIGN_PERSON_AND_ORGANIZATION_ASSIGNMENT ( #224, #59, ( #199 ) ) ;
#156 = CARTESIAN_POINT ( 'NONE',  ( 2.779219145719134403E-13, -7.189289034394536528E-15, 79.60000000000000853 ) ) ;
#157 = CONICAL_SURFACE ( 'NONE', #15, 2.934000000000000163, 0.5235987755982930425 ) ;
#158 = PERSON_AND_ORGANIZATION ( #213, #136 ) ;
#159 = DIRECTION ( 'NONE',  ( -3.491481338843133355E-15, 9.031770143711729009E-17, -1.000000000000000000 ) ) ;
#160 = ORIENTED_EDGE ( 'NONE', *, *, #98, .F. ) ;
#161 = CARTESIAN_POINT ( 'NONE',  ( 4.320401944978948971E-14, 2.933999999999998831, 12.37412297443488463 ) ) ;
#162 = ADVANCED_FACE ( 'NONE', ( #71, #168 ), #210, .T. ) ;
#163 = DIRECTION ( 'NONE',  ( 3.153425691349006731E-31, 1.000000000000000000, 9.031770143711729009E-17 ) ) ;
#164 = DIRECTION ( 'NONE',  ( 3.491481338843133355E-15, 5.468176119292498806E-16, 1.000000000000000000 ) ) ;
#165 = MANIFOLD_SOLID_BREP ( 'Corps-Déplacer/Copier1[1]', #23 ) ;
#166 = CIRCLE ( 'NONE', #222, 2.933999999999998387 ) ;
#167 = CARTESIAN_POINT ( 'NONE',  ( 4.320401944978948971E-14, 2.933999999999998831, 12.37412297443488463 ) ) ;
#168 = FACE_BOUND ( 'NONE', #46, .T. ) ;
#169 = PERSON_AND_ORGANIZATION ( #213, #136 ) ;
#170 = AXIS2_PLACEMENT_3D ( 'NONE', #53, #150, #128 ) ;
#171 = DIRECTION ( 'NONE',  ( 0.0000000000000000000, 0.0000000000000000000, 1.000000000000000000 ) ) ;
#172 = AXIS2_PLACEMENT_3D ( 'NONE', #156, #159, #226 ) ;
#173 = ADVANCED_FACE ( 'NONE', ( #148, #202 ), #238, .T. ) ;
#174 = CC_DESIGN_APPROVAL ( #113, ( #39 ) ) ;
#175 = FACE_OUTER_BOUND ( 'NONE', #28, .T. ) ;
#176 = DATE_AND_TIME ( #135, #197 ) ;
#177 = EDGE_LOOP ( 'NONE', ( #13 ) ) ;
#178 = CONICAL_SURFACE ( 'NONE', #67, 1.999999999999995337, 0.7853981633974516097 ) ;
#179 = ORIENTED_EDGE ( 'NONE', *, *, #7, .T. ) ;
#180 = EDGE_LOOP ( 'NONE', ( #141 ) ) ;
#181 = PRODUCT_RELATED_PRODUCT_CATEGORY ( 'detail', '', ( #194 ) ) ;
#182 = CARTESIAN_POINT ( 'NONE',  ( 2.793185071074506684E-13, 1.599999999999987876, 80.00000000000000000 ) ) ;
#183 = CC_DESIGN_DATE_AND_TIME_ASSIGNMENT ( #134, #209, ( #191 ) ) ;
#184 = CARTESIAN_POINT ( 'NONE',  ( 0.0000000000000000000, 0.0000000000000000000, 0.0000000000000000000 ) ) ;
#185 = DESIGN_CONTEXT ( 'detailed design', #58, 'design' ) ;
#186 = CARTESIAN_POINT ( 'NONE',  ( 2.779219145719134403E-13, 1.999999999999988010, 79.60000000000000853 ) ) ;
#187 = DIRECTION ( 'NONE',  ( 0.0000000000000000000, 1.000000000000000000, 0.0000000000000000000 ) ) ;
#188 = VERTEX_POINT ( 'NONE', #220 ) ;
#189 =( NAMED_UNIT ( * ) PLANE_ANGLE_UNIT ( ) SI_UNIT ( $, .RADIAN. ) );
#190 = CC_DESIGN_PERSON_AND_ORGANIZATION_ASSIGNMENT ( #21, #4, ( #39 ) ) ;
#191 = SECURITY_CLASSIFICATION ( '', '', #75 ) ;
#192 = APPROVAL_ROLE ( '' ) ;
#193 = DIRECTION ( 'NONE',  ( -2.100537089992901236E-30, 1.000000000000000000, -5.912486284856210019E-16 ) ) ;
#194 = PRODUCT ( '321490', '321490', '', ( #117 ) ) ;
#195 = CARTESIAN_POINT ( 'NONE',  ( 0.0000000000000000000, 0.0000000000000000000, 0.0000000000000000000 ) ) ;
#196 = FACE_BOUND ( 'NONE', #124, .T. ) ;
#197 = LOCAL_TIME ( 11, 4, 21.00000000000000000, #120 ) ;
#198 = CARTESIAN_POINT ( 'NONE',  ( 2.779219145719134403E-13, -7.189289034394536528E-15, 79.60000000000000853 ) ) ;
#199 = PRODUCT_DEFINITION ( 'UNKNOWN', '', #39, #185 ) ;
#200 = CARTESIAN_POINT ( 'NONE',  ( 2.793185071074506684E-13, -7.225416114969383207E-15, 80.00000000000000000 ) ) ;
#201 = CARTESIAN_POINT ( 'NONE',  ( 2.793185071074506684E-13, -7.225416114969383207E-15, 80.00000000000000000 ) ) ;
#202 = FACE_OUTER_BOUND ( 'NONE', #177, .T. ) ;
#203 = CARTESIAN_POINT ( 'NONE',  ( 4.320401944978948339E-14, 6.766388374599348772E-15, 12.37412297443488285 ) ) ;
#204 = CIRCLE ( 'NONE', #172, 1.999999999999995337 ) ;
#205 = AXIS2_PLACEMENT_3D ( 'NONE', #129, #35, #16 ) ;
#206 = APPROVAL_DATE_TIME ( #40, #113 ) ;
#207 = PERSON_AND_ORGANIZATION ( #213, #136 ) ;
#208 = APPROVAL ( #114, 'UNSPECIFIED' ) ;
#209 = DATE_TIME_ROLE ( 'classification_date' ) ;
#210 = CONICAL_SURFACE ( 'NONE', #205, 2.703059892324148894, 0.5235987755982969283 ) ;
#211 = EDGE_LOOP ( 'NONE', ( #229 ) ) ;
#212 = CARTESIAN_POINT ( 'NONE',  ( 4.320401944978949602E-14, 6.766388374599351139E-15, 12.37412297443488640 ) ) ;
#213 = PERSON ( 'UNSPECIFIED', 'UNSPECIFIED', 'UNSPECIFIED', ('UNSPECIFIED'), ('UNSPECIFIED'), ('UNSPECIFIED') ) ;
#214 = DIRECTION ( 'NONE',  ( -3.491481338843133355E-15, -5.468176119292498806E-16, -1.000000000000000000 ) ) ;
#215 = APPROVAL_DATE_TIME ( #227, #208 ) ;
#216 = EDGE_CURVE ( 'NONE', #145, #145, #11, .T. ) ;
#217 = CARTESIAN_POINT ( 'NONE',  ( 4.885231259955590439E-14, 1.999999999999990452, 13.99185842870425134 ) ) ;
#218 = DIRECTION ( 'NONE',  ( 3.491481338843133355E-15, -9.031770143711729009E-17, 1.000000000000000000 ) ) ;
#219 = CARTESIAN_POINT ( 'NONE',  ( 4.320401944978948971E-14, -1.117602344351183824E-15, 12.37412297443488463 ) ) ;
#220 = CARTESIAN_POINT ( 'NONE',  ( 1.396592535537253539E-15, 2.933999999999998831, 0.4000000000000000222 ) ) ;
#221 = DIRECTION ( 'NONE',  ( -3.153425691349006731E-31, -1.000000000000000000, -9.031770143711729009E-17 ) ) ;
#222 = AXIS2_PLACEMENT_3D ( 'NONE', #47, #121, #48 ) ;
#223 = CC_DESIGN_PERSON_AND_ORGANIZATION_ASSIGNMENT ( #169, #27, ( #194 ) ) ;
#224 = PERSON_AND_ORGANIZATION ( #213, #136 ) ;
#225 = PERSON_AND_ORGANIZATION ( #213, #136 ) ;
#226 = DIRECTION ( 'NONE',  ( 0.0000000000000000000, 1.000000000000000000, 0.0000000000000000000 ) ) ;
#227 = DATE_AND_TIME ( #81, #84 ) ;
#228 = CC_DESIGN_DATE_AND_TIME_ASSIGNMENT ( #243, #101, ( #199 ) ) ;
#229 = ORIENTED_EDGE ( 'NONE', *, *, #45, .T. ) ;
#230 = APPROVAL_ROLE ( '' ) ;
#231 = ORIENTED_EDGE ( 'NONE', *, *, #49, .T. ) ;
#232 = DIRECTION ( 'NONE',  ( -1.909203487801742357E-30, 1.000000000000000000, -5.468176119292498806E-16 ) ) ;
#233 = CIRCLE ( 'NONE', #43, 1.599999999999994982 ) ;
#234 = APPROVAL_PERSON_ORGANIZATION ( #158, #113, #230 ) ;
#235 = SHAPE_DEFINITION_REPRESENTATION ( #52, #31 ) ;
#236 = FACE_BOUND ( 'NONE', #122, .T. ) ;
#237 = PLANE ( 'NONE',  #102 ) ;
#238 = CYLINDRICAL_SURFACE ( 'NONE', #103, 2.933999999999994834 ) ;
#239 = AXIS2_PLACEMENT_3D ( 'NONE', #195, #171, #44 ) ;
#240 = DIRECTION ( 'NONE',  ( 0.0000000000000000000, 1.000000000000000000, 0.0000000000000000000 ) ) ;
#241 = FACE_OUTER_BOUND ( 'NONE', #118, .T. ) ;
#242 = ADVANCED_FACE ( 'NONE', ( #241, #94 ), #30, .T. ) ;
#243 = DATE_AND_TIME ( #78, #116 ) ;
ENDSEC;
END-ISO-10303-21;
