ISO-10303-21;
HEADER;
FILE_DESCRIPTION (( 'STEP AP203' ),
    '1' );
FILE_NAME ('321489.step',
    '2021-11-26T10:04:21',
    ( '' ),
    ( '' ),
    'SwSTEP 2.0',
    'SolidWorks 2019',
    '' );
FILE_SCHEMA (( 'CONFIG_CONTROL_DESIGN' ));
ENDSEC;

DATA;
#1 = AXIS2_PLACEMENT_3D ( 'NONE', #83, #48, #130 ) ;
#2 = EDGE_LOOP ( 'NONE', ( #157 ) ) ;
#3 = DESIGN_CONTEXT ( 'detailed design', #78, 'design' ) ;
#4 = CONICAL_SURFACE ( 'NONE', #22, 2.928999999999999826, 0.5235987755982927094 ) ;
#5 = CARTESIAN_POINT ( 'NONE',  ( 4.323425656515227106E-14, 6.764267224121890795E-15, 12.38278322847273216 ) ) ;
#6 = MANIFOLD_SOLID_BREP ( 'Corps-Déplacer/Copier1[2]', #104 ) ;
#7 = FACE_OUTER_BOUND ( 'NONE', #229, .T. ) ;
#8 = CC_DESIGN_APPROVAL ( #165, ( #23 ) ) ;
#9 = PLANE ( 'NONE',  #88 ) ;
#10 = PERSON_AND_ORGANIZATION ( #217, #171 ) ;
#11 = DIRECTION ( 'NONE',  ( -3.491481338843133355E-15, 9.031770143711729009E-17, -1.000000000000000000 ) ) ;
#12 = CIRCLE ( 'NONE', #37, 2.698059892324148556 ) ;
#13 = DIRECTION ( 'NONE',  ( -2.104122848084388203E-30, 1.000000000000000000, -5.922579296609123422E-16 ) ) ;
#14 = DIRECTION ( 'NONE',  ( 1.000000000000000000, 0.0000000000000000000, 0.0000000000000000000 ) ) ;
#15 = ORIENTED_EDGE ( 'NONE', *, *, #65, .T. ) ;
#16 = VERTEX_POINT ( 'NONE', #200 ) ;
#17 = DIRECTION ( 'NONE',  ( -3.491481338843133355E-15, 9.031770143711729009E-17, -1.000000000000000000 ) ) ;
#18 = CIRCLE ( 'NONE', #54, 1.599999999999994982 ) ;
#19 = APPROVAL_PERSON_ORGANIZATION ( #33, #165, #183 ) ;
#20 = ORIENTED_EDGE ( 'NONE', *, *, #65, .F. ) ;
#21 = EDGE_CURVE ( 'NONE', #16, #16, #141, .T. ) ;
#22 = AXIS2_PLACEMENT_3D ( 'NONE', #50, #11, #169 ) ;
#23 = SECURITY_CLASSIFICATION ( '', '', #26 ) ;
#24 = ORIENTED_EDGE ( 'NONE', *, *, #21, .T. ) ;
#25 = CC_DESIGN_PERSON_AND_ORGANIZATION_ASSIGNMENT ( #10, #149, ( #75 ) ) ;
#26 = SECURITY_CLASSIFICATION_LEVEL ( 'unclassified' ) ;
#27 = CARTESIAN_POINT ( 'NONE',  ( 4.885231259955590439E-14, -1.263712492114123682E-15, 13.99185842870425134 ) ) ;
#28 = APPROVAL_STATUS ( 'not_yet_approved' ) ;
#29 = PRODUCT ( '321489', '321489', '', ( #97 ) ) ;
#30 = PERSON_AND_ORGANIZATION ( #217, #171 ) ;
#31 = PLANE ( 'NONE',  #77 ) ;
#32 = FACE_BOUND ( 'NONE', #66, .T. ) ;
#33 = PERSON_AND_ORGANIZATION ( #217, #171 ) ;
#34 = DIRECTION ( 'NONE',  ( -3.491481338843133355E-15, 9.031770143711729009E-17, -1.000000000000000000 ) ) ;
#35 = PERSON_AND_ORGANIZATION_ROLE ( 'design_supplier' ) ;
#36 = ADVANCED_FACE ( 'NONE', ( #81, #99 ), #218, .T. ) ;
#37 = AXIS2_PLACEMENT_3D ( 'NONE', #205, #38, #203 ) ;
#38 = DIRECTION ( 'NONE',  ( -3.491481338843133355E-15, -5.462638810124904657E-16, -1.000000000000000000 ) ) ;
#39 = DIRECTION ( 'NONE',  ( 3.491481338843133355E-15, -9.031770143711729009E-17, 1.000000000000000000 ) ) ;
#40 = CARTESIAN_POINT ( 'NONE',  ( 4.323425656515225844E-14, 2.928999999999998494, 12.38278322847272861 ) ) ;
#41 = DIRECTION ( 'NONE',  ( 0.0000000000000000000, 1.000000000000000000, 0.0000000000000000000 ) ) ;
#42 = LOCAL_TIME ( 11, 4, 21.00000000000000000, #106 ) ;
#43 = VERTEX_POINT ( 'NONE', #120 ) ;
#44 = ORIENTED_EDGE ( 'NONE', *, *, #175, .T. ) ;
#45 = CC_DESIGN_PERSON_AND_ORGANIZATION_ASSIGNMENT ( #221, #59, ( #29 ) ) ;
#46 = PLANE ( 'NONE',  #228 ) ;
#47 = CC_DESIGN_PERSON_AND_ORGANIZATION_ASSIGNMENT ( #161, #129, ( #100 ) ) ;
#48 = DIRECTION ( 'NONE',  ( -3.491481338843133355E-15, 9.031770143711729009E-17, -1.000000000000000000 ) ) ;
#49 = EDGE_LOOP ( 'NONE', ( #158 ) ) ;
#50 = CARTESIAN_POINT ( 'NONE',  ( 4.323425656515225844E-14, -1.118384518589743121E-15, 12.38278322847272861 ) ) ;
#51 = DIRECTION ( 'NONE',  ( 1.907270146639136267E-30, -1.000000000000000000, 5.462638810124904657E-16 ) ) ;
#52 = DIRECTION ( 'NONE',  ( -1.907270146639136267E-30, 1.000000000000000000, -5.462638810124904657E-16 ) ) ;
#53 = CALENDAR_DATE ( 2021, 26, 11 ) ;
#54 = AXIS2_PLACEMENT_3D ( 'NONE', #150, #133, #108 ) ;
#55 = DIRECTION ( 'NONE',  ( -3.491481338843133355E-15, 9.031770143711729009E-17, -1.000000000000000000 ) ) ;
#56 = PRODUCT_RELATED_PRODUCT_CATEGORY ( 'detail', '', ( #29 ) ) ;
#57 = CARTESIAN_POINT ( 'NONE',  ( 0.0000000000000000000, 0.0000000000000000000, 0.0000000000000000000 ) ) ;
#58 = DIRECTION ( 'NONE',  ( -3.153425691349006731E-31, -1.000000000000000000, -9.031770143711729009E-17 ) ) ;
#59 = PERSON_AND_ORGANIZATION_ROLE ( 'design_owner' ) ;
#60 = CONICAL_SURFACE ( 'NONE', #197, 1.999999999999995337, 0.7853981633974516097 ) ;
#61 = FACE_BOUND ( 'NONE', #162, .T. ) ;
#62 = ADVANCED_FACE ( 'NONE', ( #7 ), #9, .T. ) ;
#63 = DIRECTION ( 'NONE',  ( -3.491481338843133355E-15, -5.462638810124904657E-16, -1.000000000000000000 ) ) ;
#64 = DIRECTION ( 'NONE',  ( 3.491481338843133355E-15, 5.462638810124904657E-16, 1.000000000000000000 ) ) ;
#65 = EDGE_CURVE ( 'NONE', #43, #43, #224, .T. ) ;
#66 = EDGE_LOOP ( 'NONE', ( #128 ) ) ;
#67 = ORIENTED_EDGE ( 'NONE', *, *, #240, .F. ) ;
#68 = FACE_OUTER_BOUND ( 'NONE', #90, .T. ) ;
#69 = DATE_AND_TIME ( #93, #137 ) ;
#70 = EDGE_CURVE ( 'NONE', #170, #170, #84, .T. ) ;
#71 = PERSON_AND_ORGANIZATION ( #217, #171 ) ;
#72 = LOCAL_TIME ( 11, 4, 21.00000000000000000, #167 ) ;
#73 = DIRECTION ( 'NONE',  ( -3.491481338843133355E-15, 9.031770143711729009E-17, -1.000000000000000000 ) ) ;
#74 = DATE_TIME_ROLE ( 'creation_date' ) ;
#75 = PRODUCT_DEFINITION ( 'UNKNOWN', '', #100, #3 ) ;
#76 = DIRECTION ( 'NONE',  ( 0.0000000000000000000, 1.000000000000000000, 0.0000000000000000000 ) ) ;
#77 = AXIS2_PLACEMENT_3D ( 'NONE', #182, #17, #172 ) ;
#78 = APPLICATION_CONTEXT ( 'configuration controlled 3d designs of mechanical parts and assemblies' ) ;
#79 = CARTESIAN_POINT ( 'NONE',  ( 2.793185071074506684E-13, -7.225416114969383207E-15, 80.00000000000000000 ) ) ;
#80 = AXIS2_PLACEMENT_3D ( 'NONE', #173, #114, #14 ) ;
#81 = FACE_OUTER_BOUND ( 'NONE', #103, .T. ) ;
#82 = DIRECTION ( 'NONE',  ( 1.907270146639136267E-30, -1.000000000000000000, 5.462638810124904657E-16 ) ) ;
#83 = CARTESIAN_POINT ( 'NONE',  ( 4.323425656515225844E-14, -1.118384518589743121E-15, 12.38278322847272861 ) ) ;
#84 = CIRCLE ( 'NONE', #159, 1.999999999999991784 ) ;
#85 = EDGE_LOOP ( 'NONE', ( #124 ) ) ;
#86 = ORIENTED_EDGE ( 'NONE', *, *, #240, .T. ) ;
#87 = EDGE_LOOP ( 'NONE', ( #20 ) ) ;
#88 = AXIS2_PLACEMENT_3D ( 'NONE', #160, #216, #52 ) ;
#89 = EDGE_CURVE ( 'NONE', #191, #191, #18, .T. ) ;
#90 = EDGE_LOOP ( 'NONE', ( #15 ) ) ;
#91 = APPROVAL_ROLE ( '' ) ;
#92 = FACE_OUTER_BOUND ( 'NONE', #102, .T. ) ;
#93 = CALENDAR_DATE ( 2021, 26, 11 ) ;
#94 = CARTESIAN_POINT ( 'NONE',  ( 2.779219145719134403E-13, -7.189289034394536528E-15, 79.60000000000000853 ) ) ;
#95 = FACE_BOUND ( 'NONE', #49, .T. ) ;
#96 =( LENGTH_UNIT ( ) NAMED_UNIT ( * ) SI_UNIT ( .MILLI., .METRE. ) );
#97 = MECHANICAL_CONTEXT ( 'NONE', #180, 'mechanical' ) ;
#98 = CC_DESIGN_DATE_AND_TIME_ASSIGNMENT ( #127, #74, ( #75 ) ) ;
#99 = FACE_OUTER_BOUND ( 'NONE', #85, .T. ) ;
#100 = PRODUCT_DEFINITION_FORMATION_WITH_SPECIFIED_SOURCE ( 'ANY', '', #29, .NOT_KNOWN. ) ;
#101 = ADVANCED_FACE ( 'NONE', ( #95, #213 ), #4, .T. ) ;
#102 = EDGE_LOOP ( 'NONE', ( #174 ) ) ;
#103 = EDGE_LOOP ( 'NONE', ( #123 ) ) ;
#104 = CLOSED_SHELL ( 'NONE', ( #204, #36, #226, #62 ) ) ;
#105 = LOCAL_TIME ( 11, 4, 21.00000000000000000, #147 ) ;
#106 = COORDINATED_UNIVERSAL_TIME_OFFSET ( 1, 0, .AHEAD. ) ;
#107 = CC_DESIGN_PERSON_AND_ORGANIZATION_ASSIGNMENT ( #71, #35, ( #100 ) ) ;
#108 = DIRECTION ( 'NONE',  ( 0.0000000000000000000, 1.000000000000000000, 0.0000000000000000000 ) ) ;
#109 = CALENDAR_DATE ( 2021, 26, 11 ) ;
#110 = APPROVAL_STATUS ( 'not_yet_approved' ) ;
#111 = CC_DESIGN_SECURITY_CLASSIFICATION ( #23, ( #100 ) ) ;
#112 = CALENDAR_DATE ( 2021, 26, 11 ) ;
#113 = MANIFOLD_SOLID_BREP ( 'Corps-Déplacer/Copier1[1]', #134 ) ;
#114 = DIRECTION ( 'NONE',  ( 0.0000000000000000000, 0.0000000000000000000, 1.000000000000000000 ) ) ;
#115 = CIRCLE ( 'NONE', #1, 2.928999999999999826 ) ;
#116 = PRODUCT_DEFINITION_SHAPE ( 'NONE', 'NONE',  #75 ) ;
#117 = CARTESIAN_POINT ( 'NONE',  ( 5.145929086474251250E-30, 8.051124784541715976E-31, 1.473852667985131501E-15 ) ) ;
#118 = VERTEX_POINT ( 'NONE', #40 ) ;
#119 = PLANE ( 'NONE',  #163 ) ;
#120 = CARTESIAN_POINT ( 'NONE',  ( 2.779219145719134403E-13, 1.999999999999988010, 79.60000000000000853 ) ) ;
#121 = ADVANCED_FACE ( 'NONE', ( #68, #92 ), #164, .T. ) ;
#122 = CIRCLE ( 'NONE', #212, 2.928999999999991388 ) ;
#123 = ORIENTED_EDGE ( 'NONE', *, *, #168, .T. ) ;
#124 = ORIENTED_EDGE ( 'NONE', *, *, #21, .F. ) ;
#125 = APPROVAL ( #28, 'UNSPECIFIED' ) ;
#126 = CARTESIAN_POINT ( 'NONE',  ( 2.779219145719134403E-13, -7.189289034394536528E-15, 79.60000000000000853 ) ) ;
#127 = DATE_AND_TIME ( #144, #105 ) ;
#128 = ORIENTED_EDGE ( 'NONE', *, *, #89, .T. ) ;
#129 = PERSON_AND_ORGANIZATION_ROLE ( 'creator' ) ;
#130 = DIRECTION ( 'NONE',  ( 0.0000000000000000000, 1.000000000000000000, 0.0000000000000000000 ) ) ;
#131 = FACE_OUTER_BOUND ( 'NONE', #176, .T. ) ;
#132 = DATE_AND_TIME ( #53, #42 ) ;
#133 = DIRECTION ( 'NONE',  ( -3.491481338843133355E-15, 9.031770143711729009E-17, -1.000000000000000000 ) ) ;
#134 = CLOSED_SHELL ( 'NONE', ( #223, #211, #121, #101, #140 ) ) ;
#135 = APPLICATION_PROTOCOL_DEFINITION ( 'international standard', 'config_control_design', 1994, #78 ) ;
#136 = DIRECTION ( 'NONE',  ( -1.906861331076472255E-30, 1.000000000000000000, -5.552418090571040389E-16 ) ) ;
#137 = LOCAL_TIME ( 11, 4, 21.00000000000000000, #231 ) ;
#138 = CARTESIAN_POINT ( 'NONE',  ( 4.885231259955590439E-14, 1.999999999999990452, 13.99185842870425134 ) ) ;
#139 = FACE_OUTER_BOUND ( 'NONE', #2, .T. ) ;
#140 = ADVANCED_FACE ( 'NONE', ( #131 ), #31, .T. ) ;
#141 = CIRCLE ( 'NONE', #201, 2.928999999999998050 ) ;
#142 = APPROVAL_PERSON_ORGANIZATION ( #151, #125, #179 ) ;
#143 = EDGE_LOOP ( 'NONE', ( #225 ) ) ;
#144 = CALENDAR_DATE ( 2021, 26, 11 ) ;
#145 = DIRECTION ( 'NONE',  ( -1.907270146639136267E-30, 1.000000000000000000, -5.462638810124904657E-16 ) ) ;
#146 = AXIS2_PLACEMENT_3D ( 'NONE', #117, #64, #82 ) ;
#147 = COORDINATED_UNIVERSAL_TIME_OFFSET ( 1, 0, .AHEAD. ) ;
#148 = DIRECTION ( 'NONE',  ( 3.153425691349006731E-31, 1.000000000000000000, 9.031770143711729009E-17 ) ) ;
#149 = PERSON_AND_ORGANIZATION_ROLE ( 'creator' ) ;
#150 = CARTESIAN_POINT ( 'NONE',  ( 2.793185071074506684E-13, -7.225416114969383207E-15, 80.00000000000000000 ) ) ;
#151 = PERSON_AND_ORGANIZATION ( #217, #171 ) ;
#152 = CONICAL_SURFACE ( 'NONE', #146, 2.698059892324148556, 0.5235987755982969283 ) ;
#153 = APPROVAL ( #227, 'UNSPECIFIED' ) ;
#154 = CARTESIAN_POINT ( 'NONE',  ( 4.323425656515225844E-14, 2.928999999999998494, 12.38278322847272861 ) ) ;
#155 = SHAPE_DEFINITION_REPRESENTATION ( #116, #187 ) ;
#156 =( NAMED_UNIT ( * ) PLANE_ANGLE_UNIT ( ) SI_UNIT ( $, .RADIAN. ) );
#157 = ORIENTED_EDGE ( 'NONE', *, *, #168, .F. ) ;
#158 = ORIENTED_EDGE ( 'NONE', *, *, #70, .T. ) ;
#159 = AXIS2_PLACEMENT_3D ( 'NONE', #27, #219, #199 ) ;
#160 = CARTESIAN_POINT ( 'NONE',  ( -2.572964543237125625E-30, 2.698059892324148556, -7.369263339925657503E-16 ) ) ;
#161 = PERSON_AND_ORGANIZATION ( #217, #171 ) ;
#162 = EDGE_LOOP ( 'NONE', ( #67 ) ) ;
#163 = AXIS2_PLACEMENT_3D ( 'NONE', #79, #39, #58 ) ;
#164 = CYLINDRICAL_SURFACE ( 'NONE', #206, 1.999999999999993561 ) ;
#165 = APPROVAL ( #110, 'UNSPECIFIED' ) ;
#166 = PERSON_AND_ORGANIZATION_ROLE ( 'classification_officer' ) ;
#167 = COORDINATED_UNIVERSAL_TIME_OFFSET ( 1, 0, .AHEAD. ) ;
#168 = EDGE_CURVE ( 'NONE', #186, #186, #122, .T. ) ;
#169 = DIRECTION ( 'NONE',  ( 0.0000000000000000000, 1.000000000000000000, 0.0000000000000000000 ) ) ;
#170 = VERTEX_POINT ( 'NONE', #138 ) ;
#171 = ORGANIZATION ( 'UNSPECIFIED', 'UNSPECIFIED', '' ) ;
#172 = DIRECTION ( 'NONE',  ( 3.153425691349006731E-31, 1.000000000000000000, 9.031770143711729009E-17 ) ) ;
#173 = CARTESIAN_POINT ( 'NONE',  ( 0.0000000000000000000, 0.0000000000000000000, 0.0000000000000000000 ) ) ;
#174 = ORIENTED_EDGE ( 'NONE', *, *, #70, .F. ) ;
#175 = EDGE_CURVE ( 'NONE', #118, #118, #115, .T. ) ;
#176 = EDGE_LOOP ( 'NONE', ( #44 ) ) ;
#177 = APPROVAL_PERSON_ORGANIZATION ( #202, #153, #91 ) ;
#178 = CC_DESIGN_APPROVAL ( #125, ( #100 ) ) ;
#179 = APPROVAL_ROLE ( '' ) ;
#180 = APPLICATION_CONTEXT ( 'configuration controlled 3d designs of mechanical parts and assemblies' ) ;
#181 = DATE_AND_TIME ( #109, #192 ) ;
#182 = CARTESIAN_POINT ( 'NONE',  ( 4.323425656515227106E-14, 2.928999999999998494, 12.38278322847273216 ) ) ;
#183 = APPROVAL_ROLE ( '' ) ;
#184 = DATE_AND_TIME ( #112, #72 ) ;
#185 = CC_DESIGN_APPROVAL ( #153, ( #75 ) ) ;
#186 = VERTEX_POINT ( 'NONE', #154 ) ;
#187 = ADVANCED_BREP_SHAPE_REPRESENTATION ( '321489', ( #113, #6, #80 ), #209 ) ;
#188 = VERTEX_POINT ( 'NONE', #239 ) ;
#189 = CARTESIAN_POINT ( 'NONE',  ( 1.396592535537259061E-15, 2.185055524049970738E-16, 0.4000000000000016320 ) ) ;
#190 = FACE_OUTER_BOUND ( 'NONE', #207, .T. ) ;
#191 = VERTEX_POINT ( 'NONE', #238 ) ;
#192 = LOCAL_TIME ( 11, 4, 21.00000000000000000, #198 ) ;
#193 = CC_DESIGN_DATE_AND_TIME_ASSIGNMENT ( #132, #195, ( #23 ) ) ;
#194 = EDGE_LOOP ( 'NONE', ( #24 ) ) ;
#195 = DATE_TIME_ROLE ( 'classification_date' ) ;
#196 = AXIS2_PLACEMENT_3D ( 'NONE', #57, #233, #145 ) ;
#197 = AXIS2_PLACEMENT_3D ( 'NONE', #94, #55, #41 ) ;
#198 = COORDINATED_UNIVERSAL_TIME_OFFSET ( 1, 0, .AHEAD. ) ;
#199 = DIRECTION ( 'NONE',  ( 0.0000000000000000000, 1.000000000000000000, 0.0000000000000000000 ) ) ;
#200 = CARTESIAN_POINT ( 'NONE',  ( 1.396592535537253539E-15, 2.928999999999998494, 0.4000000000000000222 ) ) ;
#201 = AXIS2_PLACEMENT_3D ( 'NONE', #189, #243, #136 ) ;
#202 = PERSON_AND_ORGANIZATION ( #217, #171 ) ;
#203 = DIRECTION ( 'NONE',  ( -1.907270146639136267E-30, 1.000000000000000000, -5.462638810124904657E-16 ) ) ;
#204 = ADVANCED_FACE ( 'NONE', ( #139 ), #46, .T. ) ;
#205 = CARTESIAN_POINT ( 'NONE',  ( 5.145929086474251250E-30, 8.051124784541715976E-31, 1.473852667985131501E-15 ) ) ;
#206 = AXIS2_PLACEMENT_3D ( 'NONE', #230, #73, #148 ) ;
#207 = EDGE_LOOP ( 'NONE', ( #210 ) ) ;
#208 = UNCERTAINTY_MEASURE_WITH_UNIT (LENGTH_MEASURE( 1.000000000000000082E-05 ), #96, 'distance_accuracy_value', 'NONE');
#209 =( GEOMETRIC_REPRESENTATION_CONTEXT ( 3 ) GLOBAL_UNCERTAINTY_ASSIGNED_CONTEXT ( ( #208 ) ) GLOBAL_UNIT_ASSIGNED_CONTEXT ( ( #96, #156, #222 ) ) REPRESENTATION_CONTEXT ( 'NONE', 'WORKASPACE' ) );
#210 = ORIENTED_EDGE ( 'NONE', *, *, #89, .F. ) ;
#211 = ADVANCED_FACE ( 'NONE', ( #32, #232 ), #60, .T. ) ;
#212 = AXIS2_PLACEMENT_3D ( 'NONE', #241, #63, #13 ) ;
#213 = FACE_OUTER_BOUND ( 'NONE', #143, .T. ) ;
#214 = DIRECTION ( 'NONE',  ( 3.491481338843133355E-15, 5.462638810124904657E-16, 1.000000000000000000 ) ) ;
#215 = APPROVAL_DATE_TIME ( #181, #125 ) ;
#216 = DIRECTION ( 'NONE',  ( -3.491481338843133355E-15, -5.462638810124904657E-16, -1.000000000000000000 ) ) ;
#217 = PERSON ( 'UNSPECIFIED', 'UNSPECIFIED', 'UNSPECIFIED', ('UNSPECIFIED'), ('UNSPECIFIED'), ('UNSPECIFIED') ) ;
#218 = CYLINDRICAL_SURFACE ( 'NONE', #196, 2.928999999999994941 ) ;
#219 = DIRECTION ( 'NONE',  ( -3.491481338843133355E-15, 9.031770143711729009E-17, -1.000000000000000000 ) ) ;
#220 = APPLICATION_PROTOCOL_DEFINITION ( 'international standard', 'config_control_design', 1994, #180 ) ;
#221 = PERSON_AND_ORGANIZATION ( #217, #171 ) ;
#222 =( NAMED_UNIT ( * ) SI_UNIT ( $, .STERADIAN. ) SOLID_ANGLE_UNIT ( ) );
#223 = ADVANCED_FACE ( 'NONE', ( #190 ), #119, .T. ) ;
#224 = CIRCLE ( 'NONE', #235, 1.999999999999995337 ) ;
#225 = ORIENTED_EDGE ( 'NONE', *, *, #175, .F. ) ;
#226 = ADVANCED_FACE ( 'NONE', ( #242, #61 ), #152, .T. ) ;
#227 = APPROVAL_STATUS ( 'not_yet_approved' ) ;
#228 = AXIS2_PLACEMENT_3D ( 'NONE', #5, #214, #51 ) ;
#229 = EDGE_LOOP ( 'NONE', ( #86 ) ) ;
#230 = CARTESIAN_POINT ( 'NONE',  ( 0.0000000000000000000, 0.0000000000000000000, 0.0000000000000000000 ) ) ;
#231 = COORDINATED_UNIVERSAL_TIME_OFFSET ( 1, 0, .AHEAD. ) ;
#232 = FACE_OUTER_BOUND ( 'NONE', #87, .T. ) ;
#233 = DIRECTION ( 'NONE',  ( -3.491481338843133355E-15, -5.462638810124904657E-16, -1.000000000000000000 ) ) ;
#234 = APPROVAL_DATE_TIME ( #69, #153 ) ;
#235 = AXIS2_PLACEMENT_3D ( 'NONE', #126, #34, #76 ) ;
#236 = CC_DESIGN_PERSON_AND_ORGANIZATION_ASSIGNMENT ( #30, #166, ( #23 ) ) ;
#237 = APPROVAL_DATE_TIME ( #184, #165 ) ;
#238 = CARTESIAN_POINT ( 'NONE',  ( 2.793185071074506684E-13, 1.599999999999987876, 80.00000000000000000 ) ) ;
#239 = CARTESIAN_POINT ( 'NONE',  ( 0.0000000000000000000, 2.698059892324148556, 0.0000000000000000000 ) ) ;
#240 = EDGE_CURVE ( 'NONE', #188, #188, #12, .T. ) ;
#241 = CARTESIAN_POINT ( 'NONE',  ( 4.323425656515226475E-14, 6.764267224121890007E-15, 12.38278322847273039 ) ) ;
#242 = FACE_OUTER_BOUND ( 'NONE', #194, .T. ) ;
#243 = DIRECTION ( 'NONE',  ( -3.491481338843133355E-15, -5.462638810124904657E-16, -1.000000000000000000 ) ) ;
ENDSEC;
END-ISO-10303-21;
