ISO-10303-21;
HEADER;
FILE_DESCRIPTION (( 'STEP AP203' ),
    '1' );
FILE_NAME ('321488.step',
    '2021-11-26T10:04:20',
    ( '' ),
    ( '' ),
    'SwSTEP 2.0',
    'SolidWorks 2019',
    '' );
FILE_SCHEMA (( 'CONFIG_CONTROL_DESIGN' ));
ENDSEC;

DATA;
#1 = AXIS2_PLACEMENT_3D ( 'NONE', #28, #216, #112 ) ;
#2 = ORIENTED_EDGE ( 'NONE', *, *, #100, .T. ) ;
#3 = APPROVAL_DATE_TIME ( #179, #162 ) ;
#4 = DIRECTION ( 'NONE',  ( -1.905339507861552561E-30, 1.000000000000000000, -5.457109240895634786E-16 ) ) ;
#5 = DATE_TIME_ROLE ( 'creation_date' ) ;
#6 = CALENDAR_DATE ( 2021, 26, 11 ) ;
#7 = PERSON_AND_ORGANIZATION ( #85, #87 ) ;
#8 = EDGE_LOOP ( 'NONE', ( #2 ) ) ;
#9 = CIRCLE ( 'NONE', #35, 2.923999999999991495 ) ;
#10 = PRODUCT_RELATED_PRODUCT_CATEGORY ( 'detail', '', ( #136 ) ) ;
#11 = AXIS2_PLACEMENT_3D ( 'NONE', #217, #45, #75 ) ;
#12 = ORIENTED_EDGE ( 'NONE', *, *, #100, .F. ) ;
#13 = FACE_OUTER_BOUND ( 'NONE', #86, .T. ) ;
#14 = CARTESIAN_POINT ( 'NONE',  ( 4.326449368051503348E-14, -1.119166692828303008E-15, 12.39144348251057259 ) ) ;
#15 = AXIS2_PLACEMENT_3D ( 'NONE', #43, #198, #4 ) ;
#16 = DIRECTION ( 'NONE',  ( 1.000000000000000000, 0.0000000000000000000, 0.0000000000000000000 ) ) ;
#17 = APPROVAL ( #200, 'UNSPECIFIED' ) ;
#18 = APPLICATION_PROTOCOL_DEFINITION ( 'international standard', 'config_control_design', 1994, #145 ) ;
#19 = ORIENTED_EDGE ( 'NONE', *, *, #26, .T. ) ;
#20 = VERTEX_POINT ( 'NONE', #209 ) ;
#21 = DIRECTION ( 'NONE',  ( -3.491481338843133355E-15, 9.031770143711729009E-17, -1.000000000000000000 ) ) ;
#22 = CIRCLE ( 'NONE', #234, 1.999999999999991784 ) ;
#23 = APPROVAL_DATE_TIME ( #140, #106 ) ;
#24 = COORDINATED_UNIVERSAL_TIME_OFFSET ( 1, 0, .AHEAD. ) ;
#25 = SECURITY_CLASSIFICATION_LEVEL ( 'unclassified' ) ;
#26 = EDGE_CURVE ( 'NONE', #129, #129, #206, .T. ) ;
#27 = PLANE ( 'NONE',  #1 ) ;
#28 = CARTESIAN_POINT ( 'NONE',  ( 2.793185071074506684E-13, -7.225416114969383207E-15, 80.00000000000000000 ) ) ;
#29 = EDGE_LOOP ( 'NONE', ( #12 ) ) ;
#30 = CC_DESIGN_PERSON_AND_ORGANIZATION_ASSIGNMENT ( #142, #199, ( #70 ) ) ;
#31 = AXIS2_PLACEMENT_3D ( 'NONE', #168, #159, #76 ) ;
#32 = CLOSED_SHELL ( 'NONE', ( #119, #173, #37, #121 ) ) ;
#33 = CARTESIAN_POINT ( 'NONE',  ( 5.131193409882579310E-30, 8.019943472810029361E-31, 1.469632202468751620E-15 ) ) ;
#34 = ADVANCED_FACE ( 'NONE', ( #210 ), #120, .T. ) ;
#35 = AXIS2_PLACEMENT_3D ( 'NONE', #36, #128, #188 ) ;
#36 = CARTESIAN_POINT ( 'NONE',  ( 4.326449368051503979E-14, 6.762146073644444651E-15, 12.39144348251057437 ) ) ;
#37 = ADVANCED_FACE ( 'NONE', ( #118, #124 ), #155, .T. ) ;
#38 = ORIENTED_EDGE ( 'NONE', *, *, #186, .F. ) ;
#39 = FACE_OUTER_BOUND ( 'NONE', #104, .T. ) ;
#40 = ORIENTED_EDGE ( 'NONE', *, *, #231, .T. ) ;
#41 = CIRCLE ( 'NONE', #132, 2.923999999999999932 ) ;
#42 = CALENDAR_DATE ( 2021, 26, 11 ) ;
#43 = CARTESIAN_POINT ( 'NONE',  ( 0.0000000000000000000, 0.0000000000000000000, 0.0000000000000000000 ) ) ;
#44 = COORDINATED_UNIVERSAL_TIME_OFFSET ( 1, 0, .AHEAD. ) ;
#45 = DIRECTION ( 'NONE',  ( -3.491481338843133355E-15, 9.031770143711729009E-17, -1.000000000000000000 ) ) ;
#46 = DATE_AND_TIME ( #6, #67 ) ;
#47 = AXIS2_PLACEMENT_3D ( 'NONE', #225, #239, #197 ) ;
#48 = CARTESIAN_POINT ( 'NONE',  ( 2.779219145719134403E-13, -7.189289034394536528E-15, 79.60000000000000853 ) ) ;
#49 = CARTESIAN_POINT ( 'NONE',  ( 4.326449368051503979E-14, 2.923999999999998600, 12.39144348251057437 ) ) ;
#50 = CC_DESIGN_PERSON_AND_ORGANIZATION_ASSIGNMENT ( #7, #177, ( #232 ) ) ;
#51 = FACE_OUTER_BOUND ( 'NONE', #135, .T. ) ;
#52 = CARTESIAN_POINT ( 'NONE',  ( -2.565596704941289655E-30, 2.693059892324148663, -7.348161012343758099E-16 ) ) ;
#53 = AXIS2_PLACEMENT_3D ( 'NONE', #187, #226, #167 ) ;
#54 = DIRECTION ( 'NONE',  ( -3.491481338843133355E-15, 9.031770143711729009E-17, -1.000000000000000000 ) ) ;
#55 = CC_DESIGN_DATE_AND_TIME_ASSIGNMENT ( #46, #88, ( #184 ) ) ;
#56 = CARTESIAN_POINT ( 'NONE',  ( 1.396592535537253145E-15, 2.923999999999998600, 0.3999999999999999667 ) ) ;
#57 = PERSON_AND_ORGANIZATION_ROLE ( 'design_owner' ) ;
#58 = PLANE ( 'NONE',  #53 ) ;
#59 = LOCAL_TIME ( 11, 4, 20.00000000000000000, #44 ) ;
#60 = APPROVAL_STATUS ( 'not_yet_approved' ) ;
#61 = CARTESIAN_POINT ( 'NONE',  ( 1.396592535537258667E-15, 2.182843696358262543E-16, 0.4000000000000015210 ) ) ;
#62 = CARTESIAN_POINT ( 'NONE',  ( 2.779219145719134403E-13, 1.999999999999988010, 79.60000000000000853 ) ) ;
#63 = CC_DESIGN_DATE_AND_TIME_ASSIGNMENT ( #89, #5, ( #232 ) ) ;
#64 = ORIENTED_EDGE ( 'NONE', *, *, #204, .T. ) ;
#65 = AXIS2_PLACEMENT_3D ( 'NONE', #33, #175, #153 ) ;
#66 = CC_DESIGN_APPROVAL ( #162, ( #70 ) ) ;
#67 = LOCAL_TIME ( 11, 4, 20.00000000000000000, #219 ) ;
#68 = FACE_OUTER_BOUND ( 'NONE', #149, .T. ) ;
#69 = COORDINATED_UNIVERSAL_TIME_OFFSET ( 1, 0, .AHEAD. ) ;
#70 = PRODUCT_DEFINITION_FORMATION_WITH_SPECIFIED_SOURCE ( 'ANY', '', #136, .NOT_KNOWN. ) ;
#71 = APPROVAL_DATE_TIME ( #233, #17 ) ;
#72 = CIRCLE ( 'NONE', #180, 2.923999999999998156 ) ;
#73 = AXIS2_PLACEMENT_3D ( 'NONE', #52, #74, #133 ) ;
#74 = DIRECTION ( 'NONE',  ( -3.491481338843133355E-15, -5.457109240895634786E-16, -1.000000000000000000 ) ) ;
#75 = DIRECTION ( 'NONE',  ( 0.0000000000000000000, 1.000000000000000000, 0.0000000000000000000 ) ) ;
#76 = DIRECTION ( 'NONE',  ( 0.0000000000000000000, 1.000000000000000000, 0.0000000000000000000 ) ) ;
#77 = CC_DESIGN_PERSON_AND_ORGANIZATION_ASSIGNMENT ( #242, #57, ( #136 ) ) ;
#78 = CC_DESIGN_SECURITY_CLASSIFICATION ( #184, ( #70 ) ) ;
#79 = CARTESIAN_POINT ( 'NONE',  ( 4.326449368051503348E-14, 2.923999999999998600, 12.39144348251057259 ) ) ;
#80 = VERTEX_POINT ( 'NONE', #157 ) ;
#81 = APPLICATION_PROTOCOL_DEFINITION ( 'international standard', 'config_control_design', 1994, #201 ) ;
#82 = DIRECTION ( 'NONE',  ( 0.0000000000000000000, 1.000000000000000000, 0.0000000000000000000 ) ) ;
#83 = CC_DESIGN_APPROVAL ( #106, ( #232 ) ) ;
#84 = CARTESIAN_POINT ( 'NONE',  ( 2.793185071074506684E-13, 1.599999999999987876, 80.00000000000000000 ) ) ;
#85 = PERSON ( 'UNSPECIFIED', 'UNSPECIFIED', 'UNSPECIFIED', ('UNSPECIFIED'), ('UNSPECIFIED'), ('UNSPECIFIED') ) ;
#86 = EDGE_LOOP ( 'NONE', ( #40 ) ) ;
#87 = ORGANIZATION ( 'UNSPECIFIED', 'UNSPECIFIED', '' ) ;
#88 = DATE_TIME_ROLE ( 'classification_date' ) ;
#89 = DATE_AND_TIME ( #42, #59 ) ;
#90 = EDGE_LOOP ( 'NONE', ( #178 ) ) ;
#91 = CYLINDRICAL_SURFACE ( 'NONE', #15, 2.923999999999995048 ) ;
#92 = ORIENTED_EDGE ( 'NONE', *, *, #241, .F. ) ;
#93 = EDGE_LOOP ( 'NONE', ( #229 ) ) ;
#94 = FACE_BOUND ( 'NONE', #166, .T. ) ;
#95 = ORIENTED_EDGE ( 'NONE', *, *, #26, .F. ) ;
#96 = FACE_OUTER_BOUND ( 'NONE', #158, .T. ) ;
#97 = CONICAL_SURFACE ( 'NONE', #47, 2.923999999999999932, 0.5235987755982929315 ) ;
#98 = VERTEX_POINT ( 'NONE', #169 ) ;
#99 = CARTESIAN_POINT ( 'NONE',  ( 4.885231259955590439E-14, -1.263712492114123682E-15, 13.99185842870425134 ) ) ;
#100 = EDGE_CURVE ( 'NONE', #130, #130, #72, .T. ) ;
#101 = VERTEX_POINT ( 'NONE', #84 ) ;
#102 = DIRECTION ( 'NONE',  ( 3.153425691349006731E-31, 1.000000000000000000, 9.031770143711729009E-17 ) ) ;
#103 =( GEOMETRIC_REPRESENTATION_CONTEXT ( 3 ) GLOBAL_UNCERTAINTY_ASSIGNED_CONTEXT ( ( #222 ) ) GLOBAL_UNIT_ASSIGNED_CONTEXT ( ( #174, #240, #208 ) ) REPRESENTATION_CONTEXT ( 'NONE', 'WORKASPACE' ) );
#104 = EDGE_LOOP ( 'NONE', ( #223 ) ) ;
#105 = CALENDAR_DATE ( 2021, 26, 11 ) ;
#106 = APPROVAL ( #60, 'UNSPECIFIED' ) ;
#107 = MANIFOLD_SOLID_BREP ( 'Corps-Déplacer/Copier1[2]', #32 ) ;
#108 = AXIS2_PLACEMENT_3D ( 'NONE', #48, #144, #148 ) ;
#109 = PERSON_AND_ORGANIZATION ( #85, #87 ) ;
#110 = MANIFOLD_SOLID_BREP ( 'Corps-Déplacer/Copier1[1]', #170 ) ;
#111 = CALENDAR_DATE ( 2021, 26, 11 ) ;
#112 = DIRECTION ( 'NONE',  ( -3.153425691349006731E-31, -1.000000000000000000, -9.031770143711729009E-17 ) ) ;
#113 = APPROVAL_PERSON_ORGANIZATION ( #127, #17, #163 ) ;
#114 = CC_DESIGN_PERSON_AND_ORGANIZATION_ASSIGNMENT ( #160, #126, ( #70 ) ) ;
#115 = SHAPE_DEFINITION_REPRESENTATION ( #215, #137 ) ;
#116 = DIRECTION ( 'NONE',  ( -1.910122037866958746E-30, 1.000000000000000000, -5.376515561231129912E-16 ) ) ;
#117 = CIRCLE ( 'NONE', #11, 1.599999999999994982 ) ;
#118 = FACE_OUTER_BOUND ( 'NONE', #8, .T. ) ;
#119 = ADVANCED_FACE ( 'NONE', ( #189 ), #58, .T. ) ;
#120 = PLANE ( 'NONE',  #161 ) ;
#121 = ADVANCED_FACE ( 'NONE', ( #13 ), #235, .T. ) ;
#122 = CYLINDRICAL_SURFACE ( 'NONE', #151, 1.999999999999993561 ) ;
#123 = MECHANICAL_CONTEXT ( 'NONE', #145, 'mechanical' ) ;
#124 = FACE_BOUND ( 'NONE', #202, .T. ) ;
#125 = APPROVAL_STATUS ( 'not_yet_approved' ) ;
#126 = PERSON_AND_ORGANIZATION_ROLE ( 'creator' ) ;
#127 = PERSON_AND_ORGANIZATION ( #85, #87 ) ;
#128 = DIRECTION ( 'NONE',  ( -3.491481338843133355E-15, -5.457109240895634786E-16, -1.000000000000000000 ) ) ;
#129 = VERTEX_POINT ( 'NONE', #62 ) ;
#130 = VERTEX_POINT ( 'NONE', #56 ) ;
#131 = EDGE_CURVE ( 'NONE', #20, #20, #22, .T. ) ;
#132 = AXIS2_PLACEMENT_3D ( 'NONE', #14, #54, #195 ) ;
#133 = DIRECTION ( 'NONE',  ( -1.905339507861552561E-30, 1.000000000000000000, -5.457109240895634786E-16 ) ) ;
#134 = APPROVAL_ROLE ( '' ) ;
#135 = EDGE_LOOP ( 'NONE', ( #95 ) ) ;
#136 = PRODUCT ( '321488', '321488', '', ( #123 ) ) ;
#137 = ADVANCED_BREP_SHAPE_REPRESENTATION ( '321488', ( #110, #107, #156 ), #103 ) ;
#138 = ORIENTED_EDGE ( 'NONE', *, *, #186, .T. ) ;
#139 = PERSON_AND_ORGANIZATION ( #85, #87 ) ;
#140 = DATE_AND_TIME ( #111, #146 ) ;
#141 = FACE_OUTER_BOUND ( 'NONE', #29, .T. ) ;
#142 = PERSON_AND_ORGANIZATION ( #85, #87 ) ;
#143 = CALENDAR_DATE ( 2021, 26, 11 ) ;
#144 = DIRECTION ( 'NONE',  ( -3.491481338843133355E-15, 9.031770143711729009E-17, -1.000000000000000000 ) ) ;
#145 = APPLICATION_CONTEXT ( 'configuration controlled 3d designs of mechanical parts and assemblies' ) ;
#146 = LOCAL_TIME ( 11, 4, 20.00000000000000000, #211 ) ;
#147 = FACE_BOUND ( 'NONE', #205, .T. ) ;
#148 = DIRECTION ( 'NONE',  ( 0.0000000000000000000, 1.000000000000000000, 0.0000000000000000000 ) ) ;
#149 = EDGE_LOOP ( 'NONE', ( #64 ) ) ;
#150 = VERTEX_POINT ( 'NONE', #79 ) ;
#151 = AXIS2_PLACEMENT_3D ( 'NONE', #196, #21, #102 ) ;
#152 = ADVANCED_FACE ( 'NONE', ( #228, #39 ), #122, .T. ) ;
#153 = DIRECTION ( 'NONE',  ( 1.905339507861552561E-30, -1.000000000000000000, 5.457109240895635772E-16 ) ) ;
#154 = PERSON_AND_ORGANIZATION ( #85, #87 ) ;
#155 = CONICAL_SURFACE ( 'NONE', #65, 2.693059892324148663, 0.5235987755982970393 ) ;
#156 = AXIS2_PLACEMENT_3D ( 'NONE', #224, #193, #16 ) ;
#157 = CARTESIAN_POINT ( 'NONE',  ( 4.326449368051503348E-14, 2.923999999999998600, 12.39144348251057259 ) ) ;
#158 = EDGE_LOOP ( 'NONE', ( #92 ) ) ;
#159 = DIRECTION ( 'NONE',  ( -3.491481338843133355E-15, 9.031770143711729009E-17, -1.000000000000000000 ) ) ;
#160 = PERSON_AND_ORGANIZATION ( #85, #87 ) ;
#161 = AXIS2_PLACEMENT_3D ( 'NONE', #49, #214, #194 ) ;
#162 = APPROVAL ( #125, 'UNSPECIFIED' ) ;
#163 = APPROVAL_ROLE ( '' ) ;
#164 = CIRCLE ( 'NONE', #192, 2.693059892324148663 ) ;
#165 = ADVANCED_FACE ( 'NONE', ( #176 ), #27, .T. ) ;
#166 = EDGE_LOOP ( 'NONE', ( #183 ) ) ;
#167 = DIRECTION ( 'NONE',  ( 1.905339507861552561E-30, -1.000000000000000000, 5.457109240895634786E-16 ) ) ;
#168 = CARTESIAN_POINT ( 'NONE',  ( 2.779219145719134403E-13, -7.189289034394536528E-15, 79.60000000000000853 ) ) ;
#169 = CARTESIAN_POINT ( 'NONE',  ( 0.0000000000000000000, 2.693059892324148663, 0.0000000000000000000 ) ) ;
#170 = CLOSED_SHELL ( 'NONE', ( #165, #190, #152, #212, #34 ) ) ;
#171 = DIRECTION ( 'NONE',  ( -1.905339507861552561E-30, 1.000000000000000000, -5.457109240895635772E-16 ) ) ;
#172 = APPROVAL_PERSON_ORGANIZATION ( #154, #106, #134 ) ;
#173 = ADVANCED_FACE ( 'NONE', ( #68, #141 ), #91, .T. ) ;
#174 =( LENGTH_UNIT ( ) NAMED_UNIT ( * ) SI_UNIT ( .MILLI., .METRE. ) );
#175 = DIRECTION ( 'NONE',  ( 3.491481338843133355E-15, 5.457109240895634786E-16, 1.000000000000000000 ) ) ;
#176 = FACE_OUTER_BOUND ( 'NONE', #185, .T. ) ;
#177 = PERSON_AND_ORGANIZATION_ROLE ( 'creator' ) ;
#178 = ORIENTED_EDGE ( 'NONE', *, *, #241, .T. ) ;
#179 = DATE_AND_TIME ( #105, #203 ) ;
#180 = AXIS2_PLACEMENT_3D ( 'NONE', #61, #213, #116 ) ;
#181 = APPROVAL_PERSON_ORGANIZATION ( #139, #162, #221 ) ;
#182 = PERSON_AND_ORGANIZATION_ROLE ( 'classification_officer' ) ;
#183 = ORIENTED_EDGE ( 'NONE', *, *, #131, .T. ) ;
#184 = SECURITY_CLASSIFICATION ( '', '', #25 ) ;
#185 = EDGE_LOOP ( 'NONE', ( #38 ) ) ;
#186 = EDGE_CURVE ( 'NONE', #101, #101, #117, .T. ) ;
#187 = CARTESIAN_POINT ( 'NONE',  ( 4.326449368051503979E-14, 6.762146073644446229E-15, 12.39144348251057437 ) ) ;
#188 = DIRECTION ( 'NONE',  ( -2.107720869370442202E-30, 1.000000000000000000, -5.932706826186088360E-16 ) ) ;
#189 = FACE_OUTER_BOUND ( 'NONE', #93, .T. ) ;
#190 = ADVANCED_FACE ( 'NONE', ( #147, #51 ), #207, .T. ) ;
#191 = CARTESIAN_POINT ( 'NONE',  ( 5.131193409882579310E-30, 8.019943472810029361E-31, 1.469632202468751620E-15 ) ) ;
#192 = AXIS2_PLACEMENT_3D ( 'NONE', #191, #237, #171 ) ;
#193 = DIRECTION ( 'NONE',  ( 0.0000000000000000000, 0.0000000000000000000, 1.000000000000000000 ) ) ;
#194 = DIRECTION ( 'NONE',  ( 3.153425691349006731E-31, 1.000000000000000000, 9.031770143711729009E-17 ) ) ;
#195 = DIRECTION ( 'NONE',  ( 0.0000000000000000000, 1.000000000000000000, 0.0000000000000000000 ) ) ;
#196 = CARTESIAN_POINT ( 'NONE',  ( 0.0000000000000000000, 0.0000000000000000000, 0.0000000000000000000 ) ) ;
#197 = DIRECTION ( 'NONE',  ( 0.0000000000000000000, 1.000000000000000000, 0.0000000000000000000 ) ) ;
#198 = DIRECTION ( 'NONE',  ( -3.491481338843133355E-15, -5.457109240895634786E-16, -1.000000000000000000 ) ) ;
#199 = PERSON_AND_ORGANIZATION_ROLE ( 'design_supplier' ) ;
#200 = APPROVAL_STATUS ( 'not_yet_approved' ) ;
#201 = APPLICATION_CONTEXT ( 'configuration controlled 3d designs of mechanical parts and assemblies' ) ;
#202 = EDGE_LOOP ( 'NONE', ( #220 ) ) ;
#203 = LOCAL_TIME ( 11, 4, 20.00000000000000000, #24 ) ;
#204 = EDGE_CURVE ( 'NONE', #150, #150, #9, .T. ) ;
#205 = EDGE_LOOP ( 'NONE', ( #138 ) ) ;
#206 = CIRCLE ( 'NONE', #31, 1.999999999999995337 ) ;
#207 = CONICAL_SURFACE ( 'NONE', #108, 1.999999999999995337, 0.7853981633974516097 ) ;
#208 =( NAMED_UNIT ( * ) SI_UNIT ( $, .STERADIAN. ) SOLID_ANGLE_UNIT ( ) );
#209 = CARTESIAN_POINT ( 'NONE',  ( 4.885231259955590439E-14, 1.999999999999990452, 13.99185842870425134 ) ) ;
#210 = FACE_OUTER_BOUND ( 'NONE', #90, .T. ) ;
#211 = COORDINATED_UNIVERSAL_TIME_OFFSET ( 1, 0, .AHEAD. ) ;
#212 = ADVANCED_FACE ( 'NONE', ( #94, #96 ), #97, .T. ) ;
#213 = DIRECTION ( 'NONE',  ( -3.491481338843133355E-15, -5.457109240895634786E-16, -1.000000000000000000 ) ) ;
#214 = DIRECTION ( 'NONE',  ( -3.491481338843133355E-15, 9.031770143711729009E-17, -1.000000000000000000 ) ) ;
#215 = PRODUCT_DEFINITION_SHAPE ( 'NONE', 'NONE',  #232 ) ;
#216 = DIRECTION ( 'NONE',  ( 3.491481338843133355E-15, -9.031770143711729009E-17, 1.000000000000000000 ) ) ;
#217 = CARTESIAN_POINT ( 'NONE',  ( 2.793185071074506684E-13, -7.225416114969383207E-15, 80.00000000000000000 ) ) ;
#218 = DESIGN_CONTEXT ( 'detailed design', #201, 'design' ) ;
#219 = COORDINATED_UNIVERSAL_TIME_OFFSET ( 1, 0, .AHEAD. ) ;
#220 = ORIENTED_EDGE ( 'NONE', *, *, #231, .F. ) ;
#221 = APPROVAL_ROLE ( '' ) ;
#222 = UNCERTAINTY_MEASURE_WITH_UNIT (LENGTH_MEASURE( 1.000000000000000082E-05 ), #174, 'distance_accuracy_value', 'NONE');
#223 = ORIENTED_EDGE ( 'NONE', *, *, #131, .F. ) ;
#224 = CARTESIAN_POINT ( 'NONE',  ( 0.0000000000000000000, 0.0000000000000000000, 0.0000000000000000000 ) ) ;
#225 = CARTESIAN_POINT ( 'NONE',  ( 4.326449368051503348E-14, -1.119166692828303008E-15, 12.39144348251057259 ) ) ;
#226 = DIRECTION ( 'NONE',  ( 3.491481338843133355E-15, 5.457109240895634786E-16, 1.000000000000000000 ) ) ;
#227 = CC_DESIGN_PERSON_AND_ORGANIZATION_ASSIGNMENT ( #109, #182, ( #184 ) ) ;
#228 = FACE_OUTER_BOUND ( 'NONE', #236, .T. ) ;
#229 = ORIENTED_EDGE ( 'NONE', *, *, #204, .F. ) ;
#230 = CC_DESIGN_APPROVAL ( #17, ( #184 ) ) ;
#231 = EDGE_CURVE ( 'NONE', #98, #98, #164, .T. ) ;
#232 = PRODUCT_DEFINITION ( 'UNKNOWN', '', #70, #218 ) ;
#233 = DATE_AND_TIME ( #143, #238 ) ;
#234 = AXIS2_PLACEMENT_3D ( 'NONE', #99, #243, #82 ) ;
#235 = PLANE ( 'NONE',  #73 ) ;
#236 = EDGE_LOOP ( 'NONE', ( #19 ) ) ;
#237 = DIRECTION ( 'NONE',  ( -3.491481338843133355E-15, -5.457109240895634786E-16, -1.000000000000000000 ) ) ;
#238 = LOCAL_TIME ( 11, 4, 20.00000000000000000, #69 ) ;
#239 = DIRECTION ( 'NONE',  ( -3.491481338843133355E-15, 9.031770143711729009E-17, -1.000000000000000000 ) ) ;
#240 =( NAMED_UNIT ( * ) PLANE_ANGLE_UNIT ( ) SI_UNIT ( $, .RADIAN. ) );
#241 = EDGE_CURVE ( 'NONE', #80, #80, #41, .T. ) ;
#242 = PERSON_AND_ORGANIZATION ( #85, #87 ) ;
#243 = DIRECTION ( 'NONE',  ( -3.491481338843133355E-15, 9.031770143711729009E-17, -1.000000000000000000 ) ) ;
ENDSEC;
END-ISO-10303-21;
