ISO-10303-21;
HEADER;
FILE_DESCRIPTION (( 'STEP AP203' ),
    '1' );
FILE_NAME ('321487.step',
    '2021-11-26T10:04:19',
    ( '' ),
    ( '' ),
    'SwSTEP 2.0',
    'SolidWorks 2019',
    '' );
FILE_SCHEMA (( 'CONFIG_CONTROL_DESIGN' ));
ENDSEC;

DATA;
#1 = EDGE_LOOP ( 'NONE', ( #210 ) ) ;
#2 = CIRCLE ( 'NONE', #32, 1.999999999999995337 ) ;
#3 = DIRECTION ( 'NONE',  ( -1.913393915287080148E-30, 1.000000000000000000, -5.385725077437417841E-16 ) ) ;
#4 = FACE_OUTER_BOUND ( 'NONE', #1, .T. ) ;
#5 = AXIS2_PLACEMENT_3D ( 'NONE', #62, #75, #23 ) ;
#6 = DIRECTION ( 'NONE',  ( 0.0000000000000000000, 1.000000000000000000, 0.0000000000000000000 ) ) ;
#7 = CARTESIAN_POINT ( 'NONE',  ( 4.329473079587782115E-14, 6.760024923166999296E-15, 12.40010373654842013 ) ) ;
#8 = FACE_OUTER_BOUND ( 'NONE', #172, .T. ) ;
#9 = CARTESIAN_POINT ( 'NONE',  ( 4.329473079587781484E-14, 2.918999999999998263, 12.40010373654841835 ) ) ;
#10 = AXIS2_PLACEMENT_3D ( 'NONE', #212, #155, #139 ) ;
#11 = VERTEX_POINT ( 'NONE', #30 ) ;
#12 = ADVANCED_FACE ( 'NONE', ( #97, #177 ), #196, .T. ) ;
#13 = APPROVAL_STATUS ( 'not_yet_approved' ) ;
#14 = COORDINATED_UNIVERSAL_TIME_OFFSET ( 1, 0, .AHEAD. ) ;
#15 = APPLICATION_PROTOCOL_DEFINITION ( 'international standard', 'config_control_design', 1994, #157 ) ;
#16 = COORDINATED_UNIVERSAL_TIME_OFFSET ( 1, 0, .AHEAD. ) ;
#17 = ADVANCED_FACE ( 'NONE', ( #78, #76 ), #207, .T. ) ;
#18 = EDGE_LOOP ( 'NONE', ( #228 ) ) ;
#19 = DATE_TIME_ROLE ( 'classification_date' ) ;
#20 = CLOSED_SHELL ( 'NONE', ( #108, #181, #17, #219 ) ) ;
#21 = EDGE_LOOP ( 'NONE', ( #34 ) ) ;
#22 = EDGE_CURVE ( 'NONE', #241, #241, #107, .T. ) ;
#23 = DIRECTION ( 'NONE',  ( 0.0000000000000000000, 1.000000000000000000, 0.0000000000000000000 ) ) ;
#24 = FACE_OUTER_BOUND ( 'NONE', #130, .T. ) ;
#25 = LOCAL_TIME ( 11, 4, 19.00000000000000000, #186 ) ;
#26 = CARTESIAN_POINT ( 'NONE',  ( 4.329473079587780852E-14, 2.918999999999998263, 12.40010373654841658 ) ) ;
#27 = DIRECTION ( 'NONE',  ( -3.491481338843133355E-15, 9.031770143711729009E-17, -1.000000000000000000 ) ) ;
#28 = VERTEX_POINT ( 'NONE', #238 ) ;
#29 = ORGANIZATION ( 'UNSPECIFIED', 'UNSPECIFIED', '' ) ;
#30 = CARTESIAN_POINT ( 'NONE',  ( 1.396592535537253145E-15, 2.918999999999998707, 0.3999999999999999667 ) ) ;
#31 = DIRECTION ( 'NONE',  ( 1.000000000000000000, 0.0000000000000000000, 0.0000000000000000000 ) ) ;
#32 = AXIS2_PLACEMENT_3D ( 'NONE', #211, #61, #174 ) ;
#33 = ORIENTED_EDGE ( 'NONE', *, *, #164, .F. ) ;
#34 = ORIENTED_EDGE ( 'NONE', *, *, #22, .T. ) ;
#35 = CLOSED_SHELL ( 'NONE', ( #213, #12, #146, #80, #53 ) ) ;
#36 = ORIENTED_EDGE ( 'NONE', *, *, #133, .F. ) ;
#37 = CONICAL_SURFACE ( 'NONE', #5, 2.918999999999999595, 0.5235987755982930425 ) ;
#38 = CARTESIAN_POINT ( 'NONE',  ( 2.779219145719134403E-13, -7.189289034394536528E-15, 79.60000000000000853 ) ) ;
#39 = DIRECTION ( 'NONE',  ( -1.903411565806935842E-30, 1.000000000000000000, -5.451587395387917792E-16 ) ) ;
#40 = CARTESIAN_POINT ( 'NONE',  ( 4.885231259955590439E-14, -1.263712492114123682E-15, 13.99185842870425134 ) ) ;
#41 = AXIS2_PLACEMENT_3D ( 'NONE', #116, #84, #160 ) ;
#42 = FACE_OUTER_BOUND ( 'NONE', #18, .T. ) ;
#43 = CARTESIAN_POINT ( 'NONE',  ( 4.329473079587781484E-14, -1.119948867066862699E-15, 12.40010373654841835 ) ) ;
#44 = PERSON ( 'UNSPECIFIED', 'UNSPECIFIED', 'UNSPECIFIED', ('UNSPECIFIED'), ('UNSPECIFIED'), ('UNSPECIFIED') ) ;
#45 = DIRECTION ( 'NONE',  ( -3.491481338843133355E-15, -5.451587395387917792E-16, -1.000000000000000000 ) ) ;
#46 = CC_DESIGN_APPROVAL ( #57, ( #203 ) ) ;
#47 = COORDINATED_UNIVERSAL_TIME_OFFSET ( 1, 0, .AHEAD. ) ;
#48 = CARTESIAN_POINT ( 'NONE',  ( -6.842277657836020854E-46, 2.688059892324149214, 0.0000000000000000000 ) ) ;
#49 = APPROVAL_STATUS ( 'not_yet_approved' ) ;
#50 = AXIS2_PLACEMENT_3D ( 'NONE', #26, #99, #215 ) ;
#51 = APPROVAL_DATE_TIME ( #74, #205 ) ;
#52 = EDGE_LOOP ( 'NONE', ( #33 ) ) ;
#53 = ADVANCED_FACE ( 'NONE', ( #8 ), #79, .T. ) ;
#54 = PRODUCT_DEFINITION_SHAPE ( 'NONE', 'NONE',  #83 ) ;
#55 = CC_DESIGN_SECURITY_CLASSIFICATION ( #203, ( #117 ) ) ;
#56 = EDGE_LOOP ( 'NONE', ( #223 ) ) ;
#57 = APPROVAL ( #224, 'UNSPECIFIED' ) ;
#58 = CYLINDRICAL_SURFACE ( 'NONE', #222, 1.999999999999993561 ) ;
#59 = LOCAL_TIME ( 11, 4, 19.00000000000000000, #14 ) ;
#60 = CARTESIAN_POINT ( 'NONE',  ( 0.0000000000000000000, 0.0000000000000000000, 0.0000000000000000000 ) ) ;
#61 = DIRECTION ( 'NONE',  ( -3.491481338843133355E-15, 9.031770143711729009E-17, -1.000000000000000000 ) ) ;
#62 = CARTESIAN_POINT ( 'NONE',  ( 4.329473079587781484E-14, -1.119948867066862699E-15, 12.40010373654841835 ) ) ;
#63 = APPROVAL ( #13, 'UNSPECIFIED' ) ;
#64 = DIRECTION ( 'NONE',  ( -3.491481338843133355E-15, -5.451587395387917792E-16, -1.000000000000000000 ) ) ;
#65 = VERTEX_POINT ( 'NONE', #104 ) ;
#66 = CALENDAR_DATE ( 2021, 26, 11 ) ;
#67 = CC_DESIGN_APPROVAL ( #63, ( #83 ) ) ;
#68 = PERSON_AND_ORGANIZATION ( #44, #29 ) ;
#69 = EDGE_LOOP ( 'NONE', ( #36 ) ) ;
#70 = AXIS2_PLACEMENT_3D ( 'NONE', #60, #135, #39 ) ;
#71 = PERSON_AND_ORGANIZATION ( #44, #29 ) ;
#72 = ORIENTED_EDGE ( 'NONE', *, *, #22, .F. ) ;
#73 = CIRCLE ( 'NONE', #191, 2.688059892324149214 ) ;
#74 = DATE_AND_TIME ( #89, #200 ) ;
#75 = DIRECTION ( 'NONE',  ( -3.491481338843133355E-15, 9.031770143711729009E-17, -1.000000000000000000 ) ) ;
#76 = FACE_BOUND ( 'NONE', #69, .T. ) ;
#77 = DIRECTION ( 'NONE',  ( 3.153425691349006731E-31, 1.000000000000000000, 9.031770143711729009E-17 ) ) ;
#78 = FACE_OUTER_BOUND ( 'NONE', #226, .T. ) ;
#79 = PLANE ( 'NONE',  #50 ) ;
#80 = ADVANCED_FACE ( 'NONE', ( #114, #42 ), #37, .T. ) ;
#81 = AXIS2_PLACEMENT_3D ( 'NONE', #197, #234, #100 ) ;
#82 = ADVANCED_BREP_SHAPE_REPRESENTATION ( '321487', ( #225, #143, #103 ), #171 ) ;
#83 = PRODUCT_DEFINITION ( 'UNKNOWN', '', #117, #204 ) ;
#84 = DIRECTION ( 'NONE',  ( 3.491481338843133355E-15, -9.031770143711729009E-17, 1.000000000000000000 ) ) ;
#85 = DIRECTION ( 'NONE',  ( 0.0000000000000000000, 0.0000000000000000000, 1.000000000000000000 ) ) ;
#86 = PERSON_AND_ORGANIZATION ( #44, #29 ) ;
#87 = CIRCLE ( 'NONE', #240, 2.918999999999998263 ) ;
#88 = CALENDAR_DATE ( 2021, 26, 11 ) ;
#89 = CALENDAR_DATE ( 2021, 26, 11 ) ;
#90 = EDGE_CURVE ( 'NONE', #11, #11, #87, .T. ) ;
#91 = CC_DESIGN_APPROVAL ( #205, ( #117 ) ) ;
#92 = COORDINATED_UNIVERSAL_TIME_OFFSET ( 1, 0, .AHEAD. ) ;
#93 = EDGE_LOOP ( 'NONE', ( #112 ) ) ;
#94 = DATE_AND_TIME ( #208, #122 ) ;
#95 = DIRECTION ( 'NONE',  ( -3.491481338843133355E-15, 9.031770143711729009E-17, -1.000000000000000000 ) ) ;
#96 = EDGE_CURVE ( 'NONE', #65, #65, #236, .T. ) ;
#97 = FACE_BOUND ( 'NONE', #194, .T. ) ;
#98 = CIRCLE ( 'NONE', #187, 2.918999999999999595 ) ;
#99 = DIRECTION ( 'NONE',  ( -3.491481338843133355E-15, 9.031770143711729009E-17, -1.000000000000000000 ) ) ;
#100 = DIRECTION ( 'NONE',  ( 1.903411565806935842E-30, -1.000000000000000000, 5.451587395387916806E-16 ) ) ;
#101 = MECHANICAL_CONTEXT ( 'NONE', #106, 'mechanical' ) ;
#102 = CC_DESIGN_DATE_AND_TIME_ASSIGNMENT ( #150, #19, ( #203 ) ) ;
#103 = AXIS2_PLACEMENT_3D ( 'NONE', #123, #85, #31 ) ;
#104 = CARTESIAN_POINT ( 'NONE',  ( 2.793185071074506684E-13, 1.599999999999987876, 80.00000000000000000 ) ) ;
#105 = APPLICATION_PROTOCOL_DEFINITION ( 'international standard', 'config_control_design', 1994, #106 ) ;
#106 = APPLICATION_CONTEXT ( 'configuration controlled 3d designs of mechanical parts and assemblies' ) ;
#107 = CIRCLE ( 'NONE', #138, 2.918999999999991601 ) ;
#108 = ADVANCED_FACE ( 'NONE', ( #24 ), #153, .T. ) ;
#109 = PERSON_AND_ORGANIZATION ( #44, #29 ) ;
#110 = EDGE_LOOP ( 'NONE', ( #151 ) ) ;
#111 = PERSON_AND_ORGANIZATION_ROLE ( 'classification_officer' ) ;
#112 = ORIENTED_EDGE ( 'NONE', *, *, #159, .T. ) ;
#113 = LOCAL_TIME ( 11, 4, 19.00000000000000000, #47 ) ;
#114 = FACE_BOUND ( 'NONE', #93, .T. ) ;
#115 = DIRECTION ( 'NONE',  ( -3.491481338843133355E-15, -5.451587395387917792E-16, -1.000000000000000000 ) ) ;
#116 = CARTESIAN_POINT ( 'NONE',  ( 2.793185071074506684E-13, -7.225416114969383207E-15, 80.00000000000000000 ) ) ;
#117 = PRODUCT_DEFINITION_FORMATION_WITH_SPECIFIED_SOURCE ( 'ANY', '', #144, .NOT_KNOWN. ) ;
#118 = DIRECTION ( 'NONE',  ( 0.0000000000000000000, 1.000000000000000000, 0.0000000000000000000 ) ) ;
#119 = DIRECTION ( 'NONE',  ( -3.491481338843133355E-15, 9.031770143711729009E-17, -1.000000000000000000 ) ) ;
#120 = EDGE_CURVE ( 'NONE', #121, #121, #98, .T. ) ;
#121 = VERTEX_POINT ( 'NONE', #140 ) ;
#122 = LOCAL_TIME ( 11, 4, 19.00000000000000000, #16 ) ;
#123 = CARTESIAN_POINT ( 'NONE',  ( 0.0000000000000000000, 0.0000000000000000000, 0.0000000000000000000 ) ) ;
#124 = DATE_AND_TIME ( #88, #113 ) ;
#125 = VERTEX_POINT ( 'NONE', #202 ) ;
#126 = APPROVAL_ROLE ( '' ) ;
#127 = EDGE_LOOP ( 'NONE', ( #235 ) ) ;
#128 = PRODUCT_RELATED_PRODUCT_CATEGORY ( 'detail', '', ( #144 ) ) ;
#129 = PERSON_AND_ORGANIZATION ( #44, #29 ) ;
#130 = EDGE_LOOP ( 'NONE', ( #72 ) ) ;
#131 = ORIENTED_EDGE ( 'NONE', *, *, #120, .T. ) ;
#132 = DIRECTION ( 'NONE',  ( 0.0000000000000000000, 1.000000000000000000, 0.0000000000000000000 ) ) ;
#133 = EDGE_CURVE ( 'NONE', #199, #199, #73, .T. ) ;
#134 = CIRCLE ( 'NONE', #180, 1.999999999999991784 ) ;
#135 = DIRECTION ( 'NONE',  ( -3.491481338843133355E-15, -5.451587395387917792E-16, -1.000000000000000000 ) ) ;
#136 = FACE_OUTER_BOUND ( 'NONE', #190, .T. ) ;
#137 = DIRECTION ( 'NONE',  ( -3.491481338843133355E-15, 9.031770143711729009E-17, -1.000000000000000000 ) ) ;
#138 = AXIS2_PLACEMENT_3D ( 'NONE', #7, #115, #156 ) ;
#139 = DIRECTION ( 'NONE',  ( 1.903411565806935842E-30, -1.000000000000000000, 5.451587395387917792E-16 ) ) ;
#140 = CARTESIAN_POINT ( 'NONE',  ( 4.329473079587781484E-14, 2.918999999999998263, 12.40010373654841835 ) ) ;
#141 = APPROVAL_PERSON_ORGANIZATION ( #68, #205, #126 ) ;
#142 = DATE_AND_TIME ( #66, #59 ) ;
#143 = MANIFOLD_SOLID_BREP ( 'Corps-Déplacer/Copier1[2]', #20 ) ;
#144 = PRODUCT ( '321487', '321487', '', ( #101 ) ) ;
#145 = PLANE ( 'NONE',  #243 ) ;
#146 = ADVANCED_FACE ( 'NONE', ( #154, #198 ), #58, .T. ) ;
#147 = CC_DESIGN_PERSON_AND_ORGANIZATION_ASSIGNMENT ( #165, #111, ( #203 ) ) ;
#148 = PERSON_AND_ORGANIZATION_ROLE ( 'creator' ) ;
#149 = AXIS2_PLACEMENT_3D ( 'NONE', #217, #137, #6 ) ;
#150 = DATE_AND_TIME ( #189, #25 ) ;
#151 = ORIENTED_EDGE ( 'NONE', *, *, #159, .F. ) ;
#152 = PERSON_AND_ORGANIZATION_ROLE ( 'design_supplier' ) ;
#153 = PLANE ( 'NONE',  #10 ) ;
#154 = FACE_OUTER_BOUND ( 'NONE', #127, .T. ) ;
#155 = DIRECTION ( 'NONE',  ( 3.491481338843133355E-15, 5.451587395387917792E-16, 1.000000000000000000 ) ) ;
#156 = DIRECTION ( 'NONE',  ( -2.111331216868507198E-30, 1.000000000000000000, -5.942869050965440559E-16 ) ) ;
#157 = APPLICATION_CONTEXT ( 'configuration controlled 3d designs of mechanical parts and assemblies' ) ;
#158 = CARTESIAN_POINT ( 'NONE',  ( 1.396592535537258667E-15, 2.180634958155175498E-16, 0.4000000000000015210 ) ) ;
#159 = EDGE_CURVE ( 'NONE', #125, #125, #134, .T. ) ;
#160 = DIRECTION ( 'NONE',  ( -3.153425691349006731E-31, -1.000000000000000000, -9.031770143711729009E-17 ) ) ;
#161 = FACE_OUTER_BOUND ( 'NONE', #56, .T. ) ;
#162 =( NAMED_UNIT ( * ) PLANE_ANGLE_UNIT ( ) SI_UNIT ( $, .RADIAN. ) );
#163 = PERSON_AND_ORGANIZATION_ROLE ( 'creator' ) ;
#164 = EDGE_CURVE ( 'NONE', #28, #28, #2, .T. ) ;
#165 = PERSON_AND_ORGANIZATION ( #44, #29 ) ;
#166 = ORIENTED_EDGE ( 'NONE', *, *, #96, .T. ) ;
#167 = APPROVAL_PERSON_ORGANIZATION ( #183, #63, #239 ) ;
#168 = SECURITY_CLASSIFICATION_LEVEL ( 'unclassified' ) ;
#169 = CC_DESIGN_PERSON_AND_ORGANIZATION_ASSIGNMENT ( #184, #185, ( #144 ) ) ;
#170 = APPROVAL_DATE_TIME ( #94, #57 ) ;
#171 =( GEOMETRIC_REPRESENTATION_CONTEXT ( 3 ) GLOBAL_UNCERTAINTY_ASSIGNED_CONTEXT ( ( #188 ) ) GLOBAL_UNIT_ASSIGNED_CONTEXT ( ( #182, #162, #179 ) ) REPRESENTATION_CONTEXT ( 'NONE', 'WORKASPACE' ) );
#172 = EDGE_LOOP ( 'NONE', ( #131 ) ) ;
#173 = DIRECTION ( 'NONE',  ( -3.491481338843133355E-15, 9.031770143711729009E-17, -1.000000000000000000 ) ) ;
#174 = DIRECTION ( 'NONE',  ( 0.0000000000000000000, 1.000000000000000000, 0.0000000000000000000 ) ) ;
#175 = DIRECTION ( 'NONE',  ( -1.903411565806935491E-30, 1.000000000000000000, -5.451587395387916806E-16 ) ) ;
#176 = DIRECTION ( 'NONE',  ( -3.491481338843133355E-15, -5.451587395387917792E-16, -1.000000000000000000 ) ) ;
#177 = FACE_OUTER_BOUND ( 'NONE', #52, .T. ) ;
#178 = CC_DESIGN_DATE_AND_TIME_ASSIGNMENT ( #124, #242, ( #83 ) ) ;
#179 =( NAMED_UNIT ( * ) SI_UNIT ( $, .STERADIAN. ) SOLID_ANGLE_UNIT ( ) );
#180 = AXIS2_PLACEMENT_3D ( 'NONE', #40, #173, #132 ) ;
#181 = ADVANCED_FACE ( 'NONE', ( #195, #4 ), #232, .T. ) ;
#182 =( LENGTH_UNIT ( ) NAMED_UNIT ( * ) SI_UNIT ( .MILLI., .METRE. ) );
#183 = PERSON_AND_ORGANIZATION ( #44, #29 ) ;
#184 = PERSON_AND_ORGANIZATION ( #44, #29 ) ;
#185 = PERSON_AND_ORGANIZATION_ROLE ( 'design_owner' ) ;
#186 = COORDINATED_UNIVERSAL_TIME_OFFSET ( 1, 0, .AHEAD. ) ;
#187 = AXIS2_PLACEMENT_3D ( 'NONE', #43, #119, #118 ) ;
#188 = UNCERTAINTY_MEASURE_WITH_UNIT (LENGTH_MEASURE( 1.000000000000000082E-05 ), #182, 'distance_accuracy_value', 'NONE');
#189 = CALENDAR_DATE ( 2021, 26, 11 ) ;
#190 = EDGE_LOOP ( 'NONE', ( #209 ) ) ;
#191 = AXIS2_PLACEMENT_3D ( 'NONE', #230, #176, #175 ) ;
#192 = CC_DESIGN_PERSON_AND_ORGANIZATION_ASSIGNMENT ( #109, #152, ( #117 ) ) ;
#193 = DIRECTION ( 'NONE',  ( 0.0000000000000000000, 1.000000000000000000, 0.0000000000000000000 ) ) ;
#194 = EDGE_LOOP ( 'NONE', ( #166 ) ) ;
#195 = FACE_OUTER_BOUND ( 'NONE', #21, .T. ) ;
#196 = CONICAL_SURFACE ( 'NONE', #216, 1.999999999999995337, 0.7853981633974516097 ) ;
#197 = CARTESIAN_POINT ( 'NONE',  ( 5.116484288631530931E-30, 7.988861617643937800E-31, 1.465419342704213385E-15 ) ) ;
#198 = FACE_OUTER_BOUND ( 'NONE', #110, .T. ) ;
#199 = VERTEX_POINT ( 'NONE', #48 ) ;
#200 = LOCAL_TIME ( 11, 4, 19.00000000000000000, #92 ) ;
#201 = DIRECTION ( 'NONE',  ( -1.903411565806935842E-30, 1.000000000000000000, -5.451587395387917792E-16 ) ) ;
#202 = CARTESIAN_POINT ( 'NONE',  ( 4.885231259955590439E-14, 1.999999999999990452, 13.99185842870425134 ) ) ;
#203 = SECURITY_CLASSIFICATION ( '', '', #168 ) ;
#204 = DESIGN_CONTEXT ( 'detailed design', #157, 'design' ) ;
#205 = APPROVAL ( #49, 'UNSPECIFIED' ) ;
#206 = ORIENTED_EDGE ( 'NONE', *, *, #90, .T. ) ;
#207 = CONICAL_SURFACE ( 'NONE', #81, 2.688059892324149214, 0.5235987755982970393 ) ;
#208 = CALENDAR_DATE ( 2021, 26, 11 ) ;
#209 = ORIENTED_EDGE ( 'NONE', *, *, #96, .F. ) ;
#210 = ORIENTED_EDGE ( 'NONE', *, *, #90, .F. ) ;
#211 = CARTESIAN_POINT ( 'NONE',  ( 2.779219145719134403E-13, -7.189289034394536528E-15, 79.60000000000000853 ) ) ;
#212 = CARTESIAN_POINT ( 'NONE',  ( 4.329473079587780852E-14, 6.760024923166998507E-15, 12.40010373654841658 ) ) ;
#213 = ADVANCED_FACE ( 'NONE', ( #136 ), #214, .T. ) ;
#214 = PLANE ( 'NONE',  #41 ) ;
#215 = DIRECTION ( 'NONE',  ( 3.153425691349006731E-31, 1.000000000000000000, 9.031770143711729009E-17 ) ) ;
#216 = AXIS2_PLACEMENT_3D ( 'NONE', #38, #27, #193 ) ;
#217 = CARTESIAN_POINT ( 'NONE',  ( 2.793185071074506684E-13, -7.225416114969383207E-15, 80.00000000000000000 ) ) ;
#218 = APPROVAL_DATE_TIME ( #142, #63 ) ;
#219 = ADVANCED_FACE ( 'NONE', ( #161 ), #145, .T. ) ;
#220 = CARTESIAN_POINT ( 'NONE',  ( -2.558242144315765466E-30, 2.688059892324149214, -7.327096713521066927E-16 ) ) ;
#221 = CC_DESIGN_PERSON_AND_ORGANIZATION_ASSIGNMENT ( #86, #163, ( #83 ) ) ;
#222 = AXIS2_PLACEMENT_3D ( 'NONE', #233, #95, #77 ) ;
#223 = ORIENTED_EDGE ( 'NONE', *, *, #133, .T. ) ;
#224 = APPROVAL_STATUS ( 'not_yet_approved' ) ;
#225 = MANIFOLD_SOLID_BREP ( 'Corps-Déplacer/Copier1[1]', #35 ) ;
#226 = EDGE_LOOP ( 'NONE', ( #206 ) ) ;
#227 = SHAPE_DEFINITION_REPRESENTATION ( #54, #82 ) ;
#228 = ORIENTED_EDGE ( 'NONE', *, *, #120, .F. ) ;
#229 = APPROVAL_ROLE ( '' ) ;
#230 = CARTESIAN_POINT ( 'NONE',  ( 5.116484288631530931E-30, 7.988861617643937800E-31, 1.465419342704213385E-15 ) ) ;
#231 = APPROVAL_PERSON_ORGANIZATION ( #71, #57, #229 ) ;
#232 = CYLINDRICAL_SURFACE ( 'NONE', #70, 2.918999999999995154 ) ;
#233 = CARTESIAN_POINT ( 'NONE',  ( 0.0000000000000000000, 0.0000000000000000000, 0.0000000000000000000 ) ) ;
#234 = DIRECTION ( 'NONE',  ( 3.491481338843133355E-15, 5.451587395387917792E-16, 1.000000000000000000 ) ) ;
#235 = ORIENTED_EDGE ( 'NONE', *, *, #164, .T. ) ;
#236 = CIRCLE ( 'NONE', #149, 1.599999999999994982 ) ;
#237 = CC_DESIGN_PERSON_AND_ORGANIZATION_ASSIGNMENT ( #129, #148, ( #117 ) ) ;
#238 = CARTESIAN_POINT ( 'NONE',  ( 2.779219145719134403E-13, 1.999999999999988010, 79.60000000000000853 ) ) ;
#239 = APPROVAL_ROLE ( '' ) ;
#240 = AXIS2_PLACEMENT_3D ( 'NONE', #158, #64, #3 ) ;
#241 = VERTEX_POINT ( 'NONE', #9 ) ;
#242 = DATE_TIME_ROLE ( 'creation_date' ) ;
#243 = AXIS2_PLACEMENT_3D ( 'NONE', #220, #45, #201 ) ;
ENDSEC;
END-ISO-10303-21;
