ISO-10303-21;
HEADER;
FILE_DESCRIPTION (( 'STEP AP203' ),
    '1' );
FILE_NAME ('321486.step',
    '2021-11-26T10:04:19',
    ( '' ),
    ( '' ),
    'SwSTEP 2.0',
    'SolidWorks 2019',
    '' );
FILE_SCHEMA (( 'CONFIG_CONTROL_DESIGN' ));
ENDSEC;

DATA;
#1 = CC_DESIGN_APPROVAL ( #47, ( #130 ) ) ;
#2 = ADVANCED_FACE ( 'NONE', ( #134 ), #41, .T. ) ;
#3 = AXIS2_PLACEMENT_3D ( 'NONE', #59, #136, #40 ) ;
#4 = CARTESIAN_POINT ( 'NONE',  ( 0.0000000000000000000, 0.0000000000000000000, 0.0000000000000000000 ) ) ;
#5 = DATE_AND_TIME ( #182, #203 ) ;
#6 = PERSON_AND_ORGANIZATION_ROLE ( 'creator' ) ;
#7 = LOCAL_TIME ( 11, 4, 19.00000000000000000, #132 ) ;
#8 = FACE_OUTER_BOUND ( 'NONE', #25, .T. ) ;
#9 = EDGE_CURVE ( 'NONE', #142, #142, #36, .T. ) ;
#10 = CARTESIAN_POINT ( 'NONE',  ( -2.550900833560524932E-30, 2.683059892324149320, -7.306070363835138155E-16 ) ) ;
#11 = APPROVAL_DATE_TIME ( #58, #76 ) ;
#12 = VERTEX_POINT ( 'NONE', #13 ) ;
#13 = CARTESIAN_POINT ( 'NONE',  ( 0.0000000000000000000, 2.683059892324149320, 0.0000000000000000000 ) ) ;
#14 = CC_DESIGN_PERSON_AND_ORGANIZATION_ASSIGNMENT ( #229, #72, ( #143 ) ) ;
#15 =( NAMED_UNIT ( * ) PLANE_ANGLE_UNIT ( ) SI_UNIT ( $, .RADIAN. ) );
#16 = APPROVAL_PERSON_ORGANIZATION ( #45, #194, #153 ) ;
#17 = ORIENTED_EDGE ( 'NONE', *, *, #9, .T. ) ;
#18 = CONICAL_SURFACE ( 'NONE', #49, 2.683059892324149320, 0.5235987755982970393 ) ;
#19 = ADVANCED_BREP_SHAPE_REPRESENTATION ( '321486', ( #111, #189, #223 ), #128 ) ;
#20 = DIRECTION ( 'NONE',  ( 3.491481338843133355E-15, 5.446073257430265848E-16, 1.000000000000000000 ) ) ;
#21 = APPROVAL_DATE_TIME ( #214, #194 ) ;
#22 = APPROVAL_STATUS ( 'not_yet_approved' ) ;
#23 = ORIENTED_EDGE ( 'NONE', *, *, #209, .F. ) ;
#24 = EDGE_LOOP ( 'NONE', ( #187 ) ) ;
#25 = EDGE_LOOP ( 'NONE', ( #110 ) ) ;
#26 = PERSON_AND_ORGANIZATION ( #66, #176 ) ;
#27 = EDGE_LOOP ( 'NONE', ( #180 ) ) ;
#28 = APPROVAL_STATUS ( 'not_yet_approved' ) ;
#29 = DIRECTION ( 'NONE',  ( 0.0000000000000000000, 1.000000000000000000, 0.0000000000000000000 ) ) ;
#30 = AXIS2_PLACEMENT_3D ( 'NONE', #140, #212, #175 ) ;
#31 = CARTESIAN_POINT ( 'NONE',  ( 2.793185071074506684E-13, 1.599999999999987876, 80.00000000000000000 ) ) ;
#32 = CARTESIAN_POINT ( 'NONE',  ( 4.332496791124057095E-14, 2.913999999999998813, 12.40876399058625879 ) ) ;
#33 = PLANE ( 'NONE',  #211 ) ;
#34 = VERTEX_POINT ( 'NONE', #101 ) ;
#35 = DIRECTION ( 'NONE',  ( 0.0000000000000000000, 0.0000000000000000000, 1.000000000000000000 ) ) ;
#36 = CIRCLE ( 'NONE', #30, 1.999999999999991784 ) ;
#37 = ORIENTED_EDGE ( 'NONE', *, *, #170, .T. ) ;
#38 = ADVANCED_FACE ( 'NONE', ( #8, #98 ), #95, .T. ) ;
#39 = LOCAL_TIME ( 11, 4, 19.00000000000000000, #177 ) ;
#40 = DIRECTION ( 'NONE',  ( -3.153425691349006731E-31, -1.000000000000000000, -9.031770143711729009E-17 ) ) ;
#41 = PLANE ( 'NONE',  #122 ) ;
#42 = PERSON_AND_ORGANIZATION ( #66, #176 ) ;
#43 = EDGE_LOOP ( 'NONE', ( #193 ) ) ;
#44 = CONICAL_SURFACE ( 'NONE', #152, 1.999999999999995337, 0.7853981633974516097 ) ;
#45 = PERSON_AND_ORGANIZATION ( #66, #176 ) ;
#46 = DIRECTION ( 'NONE',  ( -1.901486314829040864E-30, 1.000000000000000000, -5.446073257430265848E-16 ) ) ;
#47 = APPROVAL ( #28, 'UNSPECIFIED' ) ;
#48 = VERTEX_POINT ( 'NONE', #106 ) ;
#49 = AXIS2_PLACEMENT_3D ( 'NONE', #125, #183, #50 ) ;
#50 = DIRECTION ( 'NONE',  ( 1.901486314829040864E-30, -1.000000000000000000, 5.446073257430264862E-16 ) ) ;
#51 = DIRECTION ( 'NONE',  ( -3.491481338843133355E-15, 9.031770143711729009E-17, -1.000000000000000000 ) ) ;
#52 = DIRECTION ( 'NONE',  ( 0.0000000000000000000, 1.000000000000000000, 0.0000000000000000000 ) ) ;
#53 = AXIS2_PLACEMENT_3D ( 'NONE', #162, #224, #127 ) ;
#54 = CIRCLE ( 'NONE', #92, 2.683059892324149320 ) ;
#55 = PERSON_AND_ORGANIZATION ( #66, #176 ) ;
#56 = SECURITY_CLASSIFICATION ( '', '', #121 ) ;
#57 = EDGE_LOOP ( 'NONE', ( #89 ) ) ;
#58 = DATE_AND_TIME ( #192, #7 ) ;
#59 = CARTESIAN_POINT ( 'NONE',  ( 2.793185071074506684E-13, -7.225416114969383207E-15, 80.00000000000000000 ) ) ;
#60 = APPLICATION_CONTEXT ( 'configuration controlled 3d designs of mechanical parts and assemblies' ) ;
#61 = EDGE_LOOP ( 'NONE', ( #23 ) ) ;
#62 = FACE_OUTER_BOUND ( 'NONE', #196, .T. ) ;
#63 = FACE_OUTER_BOUND ( 'NONE', #27, .T. ) ;
#64 = DIRECTION ( 'NONE',  ( -3.491481338843133355E-15, 9.031770143711729009E-17, -1.000000000000000000 ) ) ;
#65 = CARTESIAN_POINT ( 'NONE',  ( 4.332496791124058357E-14, -1.120731041305421995E-15, 12.40876399058626234 ) ) ;
#66 = PERSON ( 'UNSPECIFIED', 'UNSPECIFIED', 'UNSPECIFIED', ('UNSPECIFIED'), ('UNSPECIFIED'), ('UNSPECIFIED') ) ;
#67 = CARTESIAN_POINT ( 'NONE',  ( 2.793185071074506684E-13, -7.225416114969383207E-15, 80.00000000000000000 ) ) ;
#68 = DIRECTION ( 'NONE',  ( -3.491481338843133355E-15, 9.031770143711729009E-17, -1.000000000000000000 ) ) ;
#69 = UNCERTAINTY_MEASURE_WITH_UNIT (LENGTH_MEASURE( 1.000000000000000082E-05 ), #206, 'distance_accuracy_value', 'NONE');
#70 = AXIS2_PLACEMENT_3D ( 'NONE', #204, #163, #83 ) ;
#71 = LOCAL_TIME ( 11, 4, 19.00000000000000000, #217 ) ;
#72 = PERSON_AND_ORGANIZATION_ROLE ( 'design_owner' ) ;
#73 = DATE_TIME_ROLE ( 'classification_date' ) ;
#74 = APPROVAL_PERSON_ORGANIZATION ( #26, #76, #232 ) ;
#75 = DIRECTION ( 'NONE',  ( -3.491481338843133355E-15, -5.446073257430265848E-16, -1.000000000000000000 ) ) ;
#76 = APPROVAL ( #99, 'UNSPECIFIED' ) ;
#77 = APPLICATION_PROTOCOL_DEFINITION ( 'international standard', 'config_control_design', 1994, #60 ) ;
#78 = FACE_OUTER_BOUND ( 'NONE', #43, .T. ) ;
#79 = COORDINATED_UNIVERSAL_TIME_OFFSET ( 1, 0, .AHEAD. ) ;
#80 = ORIENTED_EDGE ( 'NONE', *, *, #242, .T. ) ;
#81 = ADVANCED_FACE ( 'NONE', ( #63 ), #233, .T. ) ;
#82 = AXIS2_PLACEMENT_3D ( 'NONE', #4, #219, #228 ) ;
#83 = DIRECTION ( 'NONE',  ( 0.0000000000000000000, 1.000000000000000000, 0.0000000000000000000 ) ) ;
#84 = FACE_OUTER_BOUND ( 'NONE', #24, .T. ) ;
#85 = PRODUCT_DEFINITION_SHAPE ( 'NONE', 'NONE',  #195 ) ;
#86 = CIRCLE ( 'NONE', #114, 1.599999999999994982 ) ;
#87 = PRODUCT_RELATED_PRODUCT_CATEGORY ( 'detail', '', ( #143 ) ) ;
#88 = DIRECTION ( 'NONE',  ( -3.491481338843133355E-15, 9.031770143711729009E-17, -1.000000000000000000 ) ) ;
#89 = ORIENTED_EDGE ( 'NONE', *, *, #113, .F. ) ;
#90 = CC_DESIGN_DATE_AND_TIME_ASSIGNMENT ( #94, #179, ( #195 ) ) ;
#91 = EDGE_LOOP ( 'NONE', ( #154 ) ) ;
#92 = AXIS2_PLACEMENT_3D ( 'NONE', #191, #173, #147 ) ;
#93 = DIRECTION ( 'NONE',  ( -3.491481338843133355E-15, -5.446073257430265848E-16, -1.000000000000000000 ) ) ;
#94 = DATE_AND_TIME ( #157, #39 ) ;
#95 = CYLINDRICAL_SURFACE ( 'NONE', #235, 2.913999999999995261 ) ;
#96 = PERSON_AND_ORGANIZATION ( #66, #176 ) ;
#97 = EDGE_LOOP ( 'NONE', ( #231 ) ) ;
#98 = FACE_OUTER_BOUND ( 'NONE', #57, .T. ) ;
#99 = APPROVAL_STATUS ( 'not_yet_approved' ) ;
#100 = APPROVAL_ROLE ( '' ) ;
#101 = CARTESIAN_POINT ( 'NONE',  ( 1.396592535537253145E-15, 2.913999999999999257, 0.3999999999999999667 ) ) ;
#102 = LOCAL_TIME ( 11, 4, 19.00000000000000000, #236 ) ;
#103 = VERTEX_POINT ( 'NONE', #31 ) ;
#104 = VERTEX_POINT ( 'NONE', #205 ) ;
#105 = CC_DESIGN_PERSON_AND_ORGANIZATION_ASSIGNMENT ( #42, #124, ( #195 ) ) ;
#106 = CARTESIAN_POINT ( 'NONE',  ( 4.332496791124058357E-14, 2.913999999999998813, 12.40876399058626234 ) ) ;
#107 = CC_DESIGN_APPROVAL ( #194, ( #195 ) ) ;
#108 = DIRECTION ( 'NONE',  ( -3.491481338843133355E-15, 9.031770143711729009E-17, -1.000000000000000000 ) ) ;
#109 = DIRECTION ( 'NONE',  ( 1.000000000000000000, 0.0000000000000000000, 0.0000000000000000000 ) ) ;
#110 = ORIENTED_EDGE ( 'NONE', *, *, #209, .T. ) ;
#111 = MANIFOLD_SOLID_BREP ( 'Corps-Déplacer/Copier1[1]', #230 ) ;
#112 = CC_DESIGN_APPROVAL ( #76, ( #56 ) ) ;
#113 = EDGE_CURVE ( 'NONE', #34, #34, #126, .T. ) ;
#114 = AXIS2_PLACEMENT_3D ( 'NONE', #67, #108, #237 ) ;
#115 = CALENDAR_DATE ( 2021, 26, 11 ) ;
#116 = EDGE_LOOP ( 'NONE', ( #80 ) ) ;
#117 = PLANE ( 'NONE',  #240 ) ;
#118 = PERSON_AND_ORGANIZATION_ROLE ( 'design_supplier' ) ;
#119 = ORIENTED_EDGE ( 'NONE', *, *, #113, .T. ) ;
#120 = FACE_OUTER_BOUND ( 'NONE', #91, .T. ) ;
#121 = SECURITY_CLASSIFICATION_LEVEL ( 'unclassified' ) ;
#122 = AXIS2_PLACEMENT_3D ( 'NONE', #198, #20, #171 ) ;
#123 = ADVANCED_FACE ( 'NONE', ( #120 ), #117, .T. ) ;
#124 = PERSON_AND_ORGANIZATION_ROLE ( 'creator' ) ;
#125 = CARTESIAN_POINT ( 'NONE',  ( 5.101801667121049863E-30, 7.957878885077271695E-31, 1.461214072767027631E-15 ) ) ;
#126 = CIRCLE ( 'NONE', #139, 2.913999999999998813 ) ;
#127 = DIRECTION ( 'NONE',  ( -2.114953954028542131E-30, 1.000000000000000000, -5.953066149542937167E-16 ) ) ;
#128 =( GEOMETRIC_REPRESENTATION_CONTEXT ( 3 ) GLOBAL_UNCERTAINTY_ASSIGNED_CONTEXT ( ( #69 ) ) GLOBAL_UNIT_ASSIGNED_CONTEXT ( ( #206, #15, #165 ) ) REPRESENTATION_CONTEXT ( 'NONE', 'WORKASPACE' ) );
#129 = ADVANCED_FACE ( 'NONE', ( #62, #78 ), #158, .T. ) ;
#130 = PRODUCT_DEFINITION_FORMATION_WITH_SPECIFIED_SOURCE ( 'ANY', '', #143, .NOT_KNOWN. ) ;
#131 = CC_DESIGN_PERSON_AND_ORGANIZATION_ASSIGNMENT ( #96, #118, ( #130 ) ) ;
#132 = COORDINATED_UNIVERSAL_TIME_OFFSET ( 1, 0, .AHEAD. ) ;
#133 = EDGE_LOOP ( 'NONE', ( #150 ) ) ;
#134 = FACE_OUTER_BOUND ( 'NONE', #61, .T. ) ;
#135 = SHAPE_DEFINITION_REPRESENTATION ( #85, #19 ) ;
#136 = DIRECTION ( 'NONE',  ( 3.491481338843133355E-15, -9.031770143711729009E-17, 1.000000000000000000 ) ) ;
#137 = EDGE_LOOP ( 'NONE', ( #119 ) ) ;
#138 = APPLICATION_CONTEXT ( 'configuration controlled 3d designs of mechanical parts and assemblies' ) ;
#139 = AXIS2_PLACEMENT_3D ( 'NONE', #216, #156, #213 ) ;
#140 = CARTESIAN_POINT ( 'NONE',  ( 4.885231259955590439E-14, -1.263712492114123682E-15, 13.99185842870425134 ) ) ;
#141 = DIRECTION ( 'NONE',  ( 3.153425691349006731E-31, 1.000000000000000000, 9.031770143711729009E-17 ) ) ;
#142 = VERTEX_POINT ( 'NONE', #225 ) ;
#143 = PRODUCT ( '321486', '321486', '', ( #243 ) ) ;
#144 = CC_DESIGN_SECURITY_CLASSIFICATION ( #56, ( #130 ) ) ;
#145 = DESIGN_CONTEXT ( 'detailed design', #60, 'design' ) ;
#146 = CARTESIAN_POINT ( 'NONE',  ( 2.779219145719134403E-13, -7.189289034394536528E-15, 79.60000000000000853 ) ) ;
#147 = DIRECTION ( 'NONE',  ( -1.901486314829040864E-30, 1.000000000000000000, -5.446073257430264862E-16 ) ) ;
#148 = APPLICATION_PROTOCOL_DEFINITION ( 'international standard', 'config_control_design', 1994, #138 ) ;
#149 = EDGE_CURVE ( 'NONE', #12, #12, #54, .T. ) ;
#150 = ORIENTED_EDGE ( 'NONE', *, *, #170, .F. ) ;
#151 = CALENDAR_DATE ( 2021, 26, 11 ) ;
#152 = AXIS2_PLACEMENT_3D ( 'NONE', #146, #88, #52 ) ;
#153 = APPROVAL_ROLE ( '' ) ;
#154 = ORIENTED_EDGE ( 'NONE', *, *, #149, .T. ) ;
#155 = EDGE_LOOP ( 'NONE', ( #17 ) ) ;
#156 = DIRECTION ( 'NONE',  ( -3.491481338843133355E-15, -5.446073257430265848E-16, -1.000000000000000000 ) ) ;
#157 = CALENDAR_DATE ( 2021, 26, 11 ) ;
#158 = CYLINDRICAL_SURFACE ( 'NONE', #82, 1.999999999999993561 ) ;
#159 = ADVANCED_FACE ( 'NONE', ( #201 ), #33, .T. ) ;
#160 = FACE_BOUND ( 'NONE', #97, .T. ) ;
#161 = CC_DESIGN_DATE_AND_TIME_ASSIGNMENT ( #5, #73, ( #56 ) ) ;
#162 = CARTESIAN_POINT ( 'NONE',  ( 4.332496791124058988E-14, 6.757903772689551574E-15, 12.40876399058626411 ) ) ;
#163 = DIRECTION ( 'NONE',  ( -3.491481338843133355E-15, 9.031770143711729009E-17, -1.000000000000000000 ) ) ;
#164 = FACE_BOUND ( 'NONE', #155, .T. ) ;
#165 =( NAMED_UNIT ( * ) SI_UNIT ( $, .STERADIAN. ) SOLID_ANGLE_UNIT ( ) );
#166 = EDGE_LOOP ( 'NONE', ( #178 ) ) ;
#167 = APPROVAL_PERSON_ORGANIZATION ( #199, #47, #100 ) ;
#168 = CC_DESIGN_PERSON_AND_ORGANIZATION_ASSIGNMENT ( #55, #6, ( #130 ) ) ;
#169 = CIRCLE ( 'NONE', #53, 2.913999999999991708 ) ;
#170 = EDGE_CURVE ( 'NONE', #104, #104, #226, .T. ) ;
#171 = DIRECTION ( 'NONE',  ( 1.901486314829040864E-30, -1.000000000000000000, 5.446073257430265848E-16 ) ) ;
#172 = PERSON_AND_ORGANIZATION ( #66, #176 ) ;
#173 = DIRECTION ( 'NONE',  ( -3.491481338843133355E-15, -5.446073257430265848E-16, -1.000000000000000000 ) ) ;
#174 = APPROVAL_DATE_TIME ( #190, #47 ) ;
#175 = DIRECTION ( 'NONE',  ( 0.0000000000000000000, 1.000000000000000000, 0.0000000000000000000 ) ) ;
#176 = ORGANIZATION ( 'UNSPECIFIED', 'UNSPECIFIED', '' ) ;
#177 = COORDINATED_UNIVERSAL_TIME_OFFSET ( 1, 0, .AHEAD. ) ;
#178 = ORIENTED_EDGE ( 'NONE', *, *, #227, .T. ) ;
#179 = DATE_TIME_ROLE ( 'creation_date' ) ;
#180 = ORIENTED_EDGE ( 'NONE', *, *, #227, .F. ) ;
#181 = CARTESIAN_POINT ( 'NONE',  ( 0.0000000000000000000, 0.0000000000000000000, 0.0000000000000000000 ) ) ;
#182 = CALENDAR_DATE ( 2021, 26, 11 ) ;
#183 = DIRECTION ( 'NONE',  ( 3.491481338843133355E-15, 5.446073257430265848E-16, 1.000000000000000000 ) ) ;
#184 = AXIS2_PLACEMENT_3D ( 'NONE', #202, #68, #238 ) ;
#185 = CARTESIAN_POINT ( 'NONE',  ( 4.332496791124058357E-14, 2.913999999999998813, 12.40876399058626234 ) ) ;
#186 = CONICAL_SURFACE ( 'NONE', #184, 2.913999999999999702, 0.5235987755982928205 ) ;
#187 = ORIENTED_EDGE ( 'NONE', *, *, #242, .F. ) ;
#188 = CLOSED_SHELL ( 'NONE', ( #2, #38, #200, #123 ) ) ;
#189 = MANIFOLD_SOLID_BREP ( 'Corps-Déplacer/Copier1[2]', #188 ) ;
#190 = DATE_AND_TIME ( #151, #102 ) ;
#191 = CARTESIAN_POINT ( 'NONE',  ( 5.101801667121049863E-30, 7.957878885077271695E-31, 1.461214072767027631E-15 ) ) ;
#192 = CALENDAR_DATE ( 2021, 26, 11 ) ;
#193 = ORIENTED_EDGE ( 'NONE', *, *, #9, .F. ) ;
#194 = APPROVAL ( #22, 'UNSPECIFIED' ) ;
#195 = PRODUCT_DEFINITION ( 'UNKNOWN', '', #130, #145 ) ;
#196 = EDGE_LOOP ( 'NONE', ( #37 ) ) ;
#197 = PERSON_AND_ORGANIZATION_ROLE ( 'classification_officer' ) ;
#198 = CARTESIAN_POINT ( 'NONE',  ( 4.332496791124057095E-14, 6.757903772689548419E-15, 12.40876399058625879 ) ) ;
#199 = PERSON_AND_ORGANIZATION ( #66, #176 ) ;
#200 = ADVANCED_FACE ( 'NONE', ( #239, #160 ), #18, .T. ) ;
#201 = FACE_OUTER_BOUND ( 'NONE', #116, .T. ) ;
#202 = CARTESIAN_POINT ( 'NONE',  ( 4.332496791124058357E-14, -1.120731041305421995E-15, 12.40876399058626234 ) ) ;
#203 = LOCAL_TIME ( 11, 4, 19.00000000000000000, #79 ) ;
#204 = CARTESIAN_POINT ( 'NONE',  ( 2.779219145719134403E-13, -7.189289034394536528E-15, 79.60000000000000853 ) ) ;
#205 = CARTESIAN_POINT ( 'NONE',  ( 2.779219145719134403E-13, 1.999999999999988010, 79.60000000000000853 ) ) ;
#206 =( LENGTH_UNIT ( ) NAMED_UNIT ( * ) SI_UNIT ( .MILLI., .METRE. ) );
#207 = CIRCLE ( 'NONE', #215, 2.913999999999999702 ) ;
#208 = CARTESIAN_POINT ( 'NONE',  ( 0.0000000000000000000, 0.0000000000000000000, 0.0000000000000000000 ) ) ;
#209 = EDGE_CURVE ( 'NONE', #48, #48, #169, .T. ) ;
#210 = CC_DESIGN_PERSON_AND_ORGANIZATION_ASSIGNMENT ( #172, #197, ( #56 ) ) ;
#211 = AXIS2_PLACEMENT_3D ( 'NONE', #32, #64, #141 ) ;
#212 = DIRECTION ( 'NONE',  ( -3.491481338843133355E-15, 9.031770143711729009E-17, -1.000000000000000000 ) ) ;
#213 = DIRECTION ( 'NONE',  ( -1.916677020838361894E-30, 1.000000000000000000, -5.394966198023274389E-16 ) ) ;
#214 = DATE_AND_TIME ( #115, #71 ) ;
#215 = AXIS2_PLACEMENT_3D ( 'NONE', #65, #51, #29 ) ;
#216 = CARTESIAN_POINT ( 'NONE',  ( 1.396592535537258667E-15, 2.178429302972114523E-16, 0.4000000000000015210 ) ) ;
#217 = COORDINATED_UNIVERSAL_TIME_OFFSET ( 1, 0, .AHEAD. ) ;
#218 = ADVANCED_FACE ( 'NONE', ( #220, #241 ), #44, .T. ) ;
#219 = DIRECTION ( 'NONE',  ( -3.491481338843133355E-15, 9.031770143711729009E-17, -1.000000000000000000 ) ) ;
#220 = FACE_BOUND ( 'NONE', #166, .T. ) ;
#221 = VERTEX_POINT ( 'NONE', #185 ) ;
#222 = ADVANCED_FACE ( 'NONE', ( #164, #84 ), #186, .T. ) ;
#223 = AXIS2_PLACEMENT_3D ( 'NONE', #208, #35, #109 ) ;
#224 = DIRECTION ( 'NONE',  ( -3.491481338843133355E-15, -5.446073257430265848E-16, -1.000000000000000000 ) ) ;
#225 = CARTESIAN_POINT ( 'NONE',  ( 4.885231259955590439E-14, 1.999999999999990452, 13.99185842870425134 ) ) ;
#226 = CIRCLE ( 'NONE', #70, 1.999999999999995337 ) ;
#227 = EDGE_CURVE ( 'NONE', #103, #103, #86, .T. ) ;
#228 = DIRECTION ( 'NONE',  ( 3.153425691349006731E-31, 1.000000000000000000, 9.031770143711729009E-17 ) ) ;
#229 = PERSON_AND_ORGANIZATION ( #66, #176 ) ;
#230 = CLOSED_SHELL ( 'NONE', ( #81, #218, #129, #222, #159 ) ) ;
#231 = ORIENTED_EDGE ( 'NONE', *, *, #149, .F. ) ;
#232 = APPROVAL_ROLE ( '' ) ;
#233 = PLANE ( 'NONE',  #3 ) ;
#234 = DIRECTION ( 'NONE',  ( -1.901486314829040864E-30, 1.000000000000000000, -5.446073257430265848E-16 ) ) ;
#235 = AXIS2_PLACEMENT_3D ( 'NONE', #181, #75, #46 ) ;
#236 = COORDINATED_UNIVERSAL_TIME_OFFSET ( 1, 0, .AHEAD. ) ;
#237 = DIRECTION ( 'NONE',  ( 0.0000000000000000000, 1.000000000000000000, 0.0000000000000000000 ) ) ;
#238 = DIRECTION ( 'NONE',  ( 0.0000000000000000000, 1.000000000000000000, 0.0000000000000000000 ) ) ;
#239 = FACE_OUTER_BOUND ( 'NONE', #137, .T. ) ;
#240 = AXIS2_PLACEMENT_3D ( 'NONE', #10, #93, #234 ) ;
#241 = FACE_OUTER_BOUND ( 'NONE', #133, .T. ) ;
#242 = EDGE_CURVE ( 'NONE', #221, #221, #207, .T. ) ;
#243 = MECHANICAL_CONTEXT ( 'NONE', #138, 'mechanical' ) ;
ENDSEC;
END-ISO-10303-21;
