ISO-10303-21;
HEADER;
FILE_DESCRIPTION (( 'STEP AP203' ),
    '1' );
FILE_NAME ('321485.step',
    '2021-11-26T10:04:18',
    ( '' ),
    ( '' ),
    'SwSTEP 2.0',
    'SolidWorks 2019',
    '' );
FILE_SCHEMA (( 'CONFIG_CONTROL_DESIGN' ));
ENDSEC;

DATA;
#1 = CARTESIAN_POINT ( 'NONE',  ( 5.087145489906177669E-30, 7.926994942426019767E-31, 1.457016376777127920E-15 ) ) ;
#2 = APPROVAL_DATE_TIME ( #157, #222 ) ;
#3 = CALENDAR_DATE ( 2021, 26, 11 ) ;
#4 = AXIS2_PLACEMENT_3D ( 'NONE', #204, #164, #221 ) ;
#5 = FACE_BOUND ( 'NONE', #49, .T. ) ;
#6 = ORIENTED_EDGE ( 'NONE', *, *, #88, .F. ) ;
#7 = AXIS2_PLACEMENT_3D ( 'NONE', #243, #154, #227 ) ;
#8 = DIRECTION ( 'NONE',  ( 3.153425691349006731E-31, 1.000000000000000000, 9.031770143711729009E-17 ) ) ;
#9 = CONICAL_SURFACE ( 'NONE', #197, 1.999999999999995337, 0.7853981633974516097 ) ;
#10 = DIRECTION ( 'NONE',  ( 1.899563749297372626E-30, -1.000000000000000000, 5.440566810896299180E-16 ) ) ;
#11 = CARTESIAN_POINT ( 'NONE',  ( 2.779219145719134403E-13, -7.189289034394536528E-15, 79.60000000000000853 ) ) ;
#12 = ORIENTED_EDGE ( 'NONE', *, *, #47, .F. ) ;
#13 = CC_DESIGN_DATE_AND_TIME_ASSIGNMENT ( #229, #112, ( #103 ) ) ;
#14 = CARTESIAN_POINT ( 'NONE',  ( 0.0000000000000000000, 0.0000000000000000000, 0.0000000000000000000 ) ) ;
#15 =( GEOMETRIC_REPRESENTATION_CONTEXT ( 3 ) GLOBAL_UNCERTAINTY_ASSIGNED_CONTEXT ( ( #150 ) ) GLOBAL_UNIT_ASSIGNED_CONTEXT ( ( #77, #92, #93 ) ) REPRESENTATION_CONTEXT ( 'NONE', 'WORKASPACE' ) );
#16 = DIRECTION ( 'NONE',  ( -3.491481338843133355E-15, -5.440566810896299180E-16, -1.000000000000000000 ) ) ;
#17 = EDGE_LOOP ( 'NONE', ( #87 ) ) ;
#18 = LOCAL_TIME ( 11, 4, 18.00000000000000000, #131 ) ;
#19 = DIRECTION ( 'NONE',  ( 1.000000000000000000, 0.0000000000000000000, 0.0000000000000000000 ) ) ;
#20 = DIRECTION ( 'NONE',  ( -3.153425691349006731E-31, -1.000000000000000000, -9.031770143711729009E-17 ) ) ;
#21 = PERSON_AND_ORGANIZATION ( #158, #79 ) ;
#22 = EDGE_CURVE ( 'NONE', #38, #38, #31, .T. ) ;
#23 = MECHANICAL_CONTEXT ( 'NONE', #74, 'mechanical' ) ;
#24 = CALENDAR_DATE ( 2021, 26, 11 ) ;
#25 = APPROVAL_DATE_TIME ( #64, #147 ) ;
#26 = EDGE_LOOP ( 'NONE', ( #90 ) ) ;
#27 = AXIS2_PLACEMENT_3D ( 'NONE', #187, #106, #68 ) ;
#28 = PRODUCT_DEFINITION_FORMATION_WITH_SPECIFIED_SOURCE ( 'ANY', '', #225, .NOT_KNOWN. ) ;
#29 = EDGE_LOOP ( 'NONE', ( #237 ) ) ;
#30 = PLANE ( 'NONE',  #124 ) ;
#31 = CIRCLE ( 'NONE', #191, 1.599999999999994982 ) ;
#32 = DIRECTION ( 'NONE',  ( 3.491481338843133355E-15, 5.440566810896299180E-16, 1.000000000000000000 ) ) ;
#33 = EDGE_LOOP ( 'NONE', ( #170 ) ) ;
#34 = FACE_BOUND ( 'NONE', #144, .T. ) ;
#35 = CARTESIAN_POINT ( 'NONE',  ( 0.0000000000000000000, 0.0000000000000000000, 0.0000000000000000000 ) ) ;
#36 = ORIENTED_EDGE ( 'NONE', *, *, #47, .T. ) ;
#37 = CIRCLE ( 'NONE', #27, 2.908999999999998032 ) ;
#38 = VERTEX_POINT ( 'NONE', #83 ) ;
#39 = ADVANCED_BREP_SHAPE_REPRESENTATION ( '321485', ( #183, #178, #215 ), #15 ) ;
#40 = PLANE ( 'NONE',  #46 ) ;
#41 = PERSON_AND_ORGANIZATION ( #158, #79 ) ;
#42 = CC_DESIGN_APPROVAL ( #222, ( #103 ) ) ;
#43 = PERSON_AND_ORGANIZATION_ROLE ( 'classification_officer' ) ;
#44 = CC_DESIGN_PERSON_AND_ORGANIZATION_ASSIGNMENT ( #62, #43, ( #103 ) ) ;
#45 = COORDINATED_UNIVERSAL_TIME_OFFSET ( 1, 0, .AHEAD. ) ;
#46 = AXIS2_PLACEMENT_3D ( 'NONE', #57, #111, #20 ) ;
#47 = EDGE_CURVE ( 'NONE', #109, #109, #56, .T. ) ;
#48 = VERTEX_POINT ( 'NONE', #236 ) ;
#49 = EDGE_LOOP ( 'NONE', ( #36 ) ) ;
#50 = DIRECTION ( 'NONE',  ( 1.899563749297372626E-30, -1.000000000000000000, 5.440566810896299180E-16 ) ) ;
#51 = VERTEX_POINT ( 'NONE', #143 ) ;
#52 = PRODUCT_DEFINITION ( 'UNKNOWN', '', #28, #172 ) ;
#53 = DIRECTION ( 'NONE',  ( -3.491481338843133355E-15, 9.031770143711729009E-17, -1.000000000000000000 ) ) ;
#54 = DIRECTION ( 'NONE',  ( 3.491481338843133355E-15, 5.440566810896299180E-16, 1.000000000000000000 ) ) ;
#55 = FACE_OUTER_BOUND ( 'NONE', #123, .T. ) ;
#56 = CIRCLE ( 'NONE', #7, 1.999999999999991784 ) ;
#57 = CARTESIAN_POINT ( 'NONE',  ( 2.793185071074506684E-13, -7.225416114969383207E-15, 80.00000000000000000 ) ) ;
#58 = PERSON_AND_ORGANIZATION_ROLE ( 'design_supplier' ) ;
#59 = DATE_AND_TIME ( #228, #96 ) ;
#60 = APPROVAL ( #199, 'UNSPECIFIED' ) ;
#61 = DIRECTION ( 'NONE',  ( -3.491481338843133355E-15, -5.440566810896299180E-16, -1.000000000000000000 ) ) ;
#62 = PERSON_AND_ORGANIZATION ( #158, #79 ) ;
#63 = AXIS2_PLACEMENT_3D ( 'NONE', #1, #61, #135 ) ;
#64 = DATE_AND_TIME ( #118, #66 ) ;
#65 = ADVANCED_FACE ( 'NONE', ( #190 ), #40, .T. ) ;
#66 = LOCAL_TIME ( 11, 4, 18.00000000000000000, #138 ) ;
#67 = FACE_OUTER_BOUND ( 'NONE', #142, .T. ) ;
#68 = DIRECTION ( 'NONE',  ( -1.919971412417665139E-30, 1.000000000000000000, -5.404239085953876011E-16 ) ) ;
#69 = EDGE_CURVE ( 'NONE', #81, #81, #133, .T. ) ;
#70 = VERTEX_POINT ( 'NONE', #82 ) ;
#71 = DIRECTION ( 'NONE',  ( 3.153425691349006731E-31, 1.000000000000000000, 9.031770143711729009E-17 ) ) ;
#72 = AXIS2_PLACEMENT_3D ( 'NONE', #152, #239, #8 ) ;
#73 = PERSON_AND_ORGANIZATION ( #158, #79 ) ;
#74 = APPLICATION_CONTEXT ( 'configuration controlled 3d designs of mechanical parts and assemblies' ) ;
#75 = CONICAL_SURFACE ( 'NONE', #234, 2.678059892324148539, 0.5235987755982970393 ) ;
#76 = SHAPE_DEFINITION_REPRESENTATION ( #186, #39 ) ;
#77 =( LENGTH_UNIT ( ) NAMED_UNIT ( * ) SI_UNIT ( .MILLI., .METRE. ) );
#78 = CC_DESIGN_PERSON_AND_ORGANIZATION_ASSIGNMENT ( #41, #80, ( #225 ) ) ;
#79 = ORGANIZATION ( 'UNSPECIFIED', 'UNSPECIFIED', '' ) ;
#80 = PERSON_AND_ORGANIZATION_ROLE ( 'design_owner' ) ;
#81 = VERTEX_POINT ( 'NONE', #163 ) ;
#82 = CARTESIAN_POINT ( 'NONE',  ( 4.335520502660336492E-14, 2.908999999999998032, 12.41742424462410810 ) ) ;
#83 = CARTESIAN_POINT ( 'NONE',  ( 2.793185071074506684E-13, 1.599999999999987876, 80.00000000000000000 ) ) ;
#84 = EDGE_LOOP ( 'NONE', ( #121 ) ) ;
#85 = APPLICATION_CONTEXT ( 'configuration controlled 3d designs of mechanical parts and assemblies' ) ;
#86 = DIRECTION ( 'NONE',  ( -3.491481338843133355E-15, 9.031770143711729009E-17, -1.000000000000000000 ) ) ;
#87 = ORIENTED_EDGE ( 'NONE', *, *, #208, .F. ) ;
#88 = EDGE_CURVE ( 'NONE', #70, #70, #146, .T. ) ;
#89 = CYLINDRICAL_SURFACE ( 'NONE', #100, 1.999999999999993561 ) ;
#90 = ORIENTED_EDGE ( 'NONE', *, *, #22, .F. ) ;
#91 = PERSON_AND_ORGANIZATION_ROLE ( 'creator' ) ;
#92 =( NAMED_UNIT ( * ) PLANE_ANGLE_UNIT ( ) SI_UNIT ( $, .RADIAN. ) );
#93 =( NAMED_UNIT ( * ) SI_UNIT ( $, .STERADIAN. ) SOLID_ANGLE_UNIT ( ) );
#94 = APPROVAL_PERSON_ORGANIZATION ( #73, #60, #97 ) ;
#95 = APPROVAL_STATUS ( 'not_yet_approved' ) ;
#96 = LOCAL_TIME ( 11, 4, 18.00000000000000000, #45 ) ;
#97 = APPROVAL_ROLE ( '' ) ;
#98 = DIRECTION ( 'NONE',  ( 0.0000000000000000000, 1.000000000000000000, 0.0000000000000000000 ) ) ;
#99 = CC_DESIGN_PERSON_AND_ORGANIZATION_ASSIGNMENT ( #141, #91, ( #52 ) ) ;
#100 = AXIS2_PLACEMENT_3D ( 'NONE', #14, #105, #71 ) ;
#101 = EDGE_LOOP ( 'NONE', ( #12 ) ) ;
#102 = ORIENTED_EDGE ( 'NONE', *, *, #188, .F. ) ;
#103 = SECURITY_CLASSIFICATION ( '', '', #110 ) ;
#104 = FACE_OUTER_BOUND ( 'NONE', #193, .T. ) ;
#105 = DIRECTION ( 'NONE',  ( -3.491481338843133355E-15, 9.031770143711729009E-17, -1.000000000000000000 ) ) ;
#106 = DIRECTION ( 'NONE',  ( -3.491481338843133355E-15, -5.440566810896299180E-16, -1.000000000000000000 ) ) ;
#107 = PLANE ( 'NONE',  #72 ) ;
#108 = AXIS2_PLACEMENT_3D ( 'NONE', #167, #16, #129 ) ;
#109 = VERTEX_POINT ( 'NONE', #165 ) ;
#110 = SECURITY_CLASSIFICATION_LEVEL ( 'unclassified' ) ;
#111 = DIRECTION ( 'NONE',  ( 3.491481338843133355E-15, -9.031770143711729009E-17, 1.000000000000000000 ) ) ;
#112 = DATE_TIME_ROLE ( 'classification_date' ) ;
#113 = CLOSED_SHELL ( 'NONE', ( #65, #212, #240, #127, #173 ) ) ;
#114 = DATE_AND_TIME ( #24, #209 ) ;
#115 = APPLICATION_PROTOCOL_DEFINITION ( 'international standard', 'config_control_design', 1994, #74 ) ;
#116 = PRODUCT_RELATED_PRODUCT_CATEGORY ( 'detail', '', ( #225 ) ) ;
#117 = CARTESIAN_POINT ( 'NONE',  ( 4.335520502660336492E-14, -1.121513215543981883E-15, 12.41742424462410810 ) ) ;
#118 = CALENDAR_DATE ( 2021, 26, 11 ) ;
#119 = APPLICATION_PROTOCOL_DEFINITION ( 'international standard', 'config_control_design', 1994, #85 ) ;
#120 = CIRCLE ( 'NONE', #4, 1.999999999999995337 ) ;
#121 = ORIENTED_EDGE ( 'NONE', *, *, #88, .T. ) ;
#122 = VERTEX_POINT ( 'NONE', #148 ) ;
#123 = EDGE_LOOP ( 'NONE', ( #151 ) ) ;
#124 = AXIS2_PLACEMENT_3D ( 'NONE', #238, #54, #50 ) ;
#125 = FACE_BOUND ( 'NONE', #29, .T. ) ;
#126 = ORIENTED_EDGE ( 'NONE', *, *, #69, .T. ) ;
#127 = ADVANCED_FACE ( 'NONE', ( #5, #233 ), #235, .T. ) ;
#128 = FACE_OUTER_BOUND ( 'NONE', #101, .T. ) ;
#129 = DIRECTION ( 'NONE',  ( -2.118589144736738912E-30, 1.000000000000000000, -5.963298301742221987E-16 ) ) ;
#130 = AXIS2_PLACEMENT_3D ( 'NONE', #136, #232, #98 ) ;
#131 = COORDINATED_UNIVERSAL_TIME_OFFSET ( 1, 0, .AHEAD. ) ;
#132 = CC_DESIGN_PERSON_AND_ORGANIZATION_ASSIGNMENT ( #176, #58, ( #28 ) ) ;
#133 = CIRCLE ( 'NONE', #63, 2.678059892324148539 ) ;
#134 = COORDINATED_UNIVERSAL_TIME_OFFSET ( 1, 0, .AHEAD. ) ;
#135 = DIRECTION ( 'NONE',  ( -1.899563749297372626E-30, 1.000000000000000000, -5.440566810896299180E-16 ) ) ;
#136 = CARTESIAN_POINT ( 'NONE',  ( 4.335520502660336492E-14, -1.121513215543981883E-15, 12.41742424462410810 ) ) ;
#137 = PERSON_AND_ORGANIZATION_ROLE ( 'creator' ) ;
#138 = COORDINATED_UNIVERSAL_TIME_OFFSET ( 1, 0, .AHEAD. ) ;
#139 = EDGE_LOOP ( 'NONE', ( #6 ) ) ;
#140 = CC_DESIGN_DATE_AND_TIME_ASSIGNMENT ( #114, #214, ( #52 ) ) ;
#141 = PERSON_AND_ORGANIZATION ( #158, #79 ) ;
#142 = EDGE_LOOP ( 'NONE', ( #102 ) ) ;
#143 = CARTESIAN_POINT ( 'NONE',  ( 1.396592535537253145E-15, 2.908999999999998476, 0.3999999999999999667 ) ) ;
#144 = EDGE_LOOP ( 'NONE', ( #168 ) ) ;
#145 = DIRECTION ( 'NONE',  ( -1.899563749297372626E-30, 1.000000000000000000, -5.440566810896299180E-16 ) ) ;
#146 = CIRCLE ( 'NONE', #171, 2.908999999999999364 ) ;
#147 = APPROVAL ( #161, 'UNSPECIFIED' ) ;
#148 = CARTESIAN_POINT ( 'NONE',  ( 4.335520502660336492E-14, 2.908999999999998032, 12.41742424462410810 ) ) ;
#149 = CARTESIAN_POINT ( 'NONE',  ( -2.543572744953088835E-30, 2.678059892324148539, -7.285081883885639601E-16 ) ) ;
#150 = UNCERTAINTY_MEASURE_WITH_UNIT (LENGTH_MEASURE( 1.000000000000000082E-05 ), #77, 'distance_accuracy_value', 'NONE');
#151 = ORIENTED_EDGE ( 'NONE', *, *, #208, .T. ) ;
#152 = CARTESIAN_POINT ( 'NONE',  ( 4.335520502660337123E-14, 2.908999999999998032, 12.41742424462410810 ) ) ;
#153 = ORIENTED_EDGE ( 'NONE', *, *, #160, .F. ) ;
#154 = DIRECTION ( 'NONE',  ( -3.491481338843133355E-15, 9.031770143711729009E-17, -1.000000000000000000 ) ) ;
#155 = ADVANCED_FACE ( 'NONE', ( #104 ), #185, .T. ) ;
#156 = CIRCLE ( 'NONE', #108, 2.908999999999990926 ) ;
#157 = DATE_AND_TIME ( #3, #219 ) ;
#158 = PERSON ( 'UNSPECIFIED', 'UNSPECIFIED', 'UNSPECIFIED', ('UNSPECIFIED'), ('UNSPECIFIED'), ('UNSPECIFIED') ) ;
#159 = APPROVAL_PERSON_ORGANIZATION ( #195, #222, #198 ) ;
#160 = EDGE_CURVE ( 'NONE', #48, #48, #120, .T. ) ;
#161 = APPROVAL_STATUS ( 'not_yet_approved' ) ;
#162 = CC_DESIGN_PERSON_AND_ORGANIZATION_ASSIGNMENT ( #21, #137, ( #28 ) ) ;
#163 = CARTESIAN_POINT ( 'NONE',  ( 0.0000000000000000000, 2.678059892324148539, 0.0000000000000000000 ) ) ;
#164 = DIRECTION ( 'NONE',  ( -3.491481338843133355E-15, 9.031770143711729009E-17, -1.000000000000000000 ) ) ;
#165 = CARTESIAN_POINT ( 'NONE',  ( 4.885231259955589808E-14, 1.999999999999990452, 13.99185842870424956 ) ) ;
#166 = CC_DESIGN_APPROVAL ( #147, ( #52 ) ) ;
#167 = CARTESIAN_POINT ( 'NONE',  ( 4.335520502660337123E-14, 6.755782622212097541E-15, 12.41742424462410810 ) ) ;
#168 = ORIENTED_EDGE ( 'NONE', *, *, #69, .F. ) ;
#169 = FACE_OUTER_BOUND ( 'NONE', #216, .T. ) ;
#170 = ORIENTED_EDGE ( 'NONE', *, *, #188, .T. ) ;
#171 = AXIS2_PLACEMENT_3D ( 'NONE', #117, #213, #177 ) ;
#172 = DESIGN_CONTEXT ( 'detailed design', #85, 'design' ) ;
#173 = ADVANCED_FACE ( 'NONE', ( #192 ), #107, .T. ) ;
#174 = DIRECTION ( 'NONE',  ( 0.0000000000000000000, 0.0000000000000000000, 1.000000000000000000 ) ) ;
#175 = CALENDAR_DATE ( 2021, 26, 11 ) ;
#176 = PERSON_AND_ORGANIZATION ( #158, #79 ) ;
#177 = DIRECTION ( 'NONE',  ( 0.0000000000000000000, 1.000000000000000000, 0.0000000000000000000 ) ) ;
#178 = MANIFOLD_SOLID_BREP ( 'Corps-Déplacer/Copier1[2]', #203 ) ;
#179 = CC_DESIGN_SECURITY_CLASSIFICATION ( #103, ( #28 ) ) ;
#180 = APPROVAL_ROLE ( '' ) ;
#181 = PERSON_AND_ORGANIZATION ( #158, #79 ) ;
#182 = ADVANCED_FACE ( 'NONE', ( #207 ), #30, .T. ) ;
#183 = MANIFOLD_SOLID_BREP ( 'Corps-Déplacer/Copier1[1]', #113 ) ;
#184 = EDGE_LOOP ( 'NONE', ( #220 ) ) ;
#185 = PLANE ( 'NONE',  #230 ) ;
#186 = PRODUCT_DEFINITION_SHAPE ( 'NONE', 'NONE',  #52 ) ;
#187 = CARTESIAN_POINT ( 'NONE',  ( 1.396592535537258667E-15, 2.176226724358527758E-16, 0.4000000000000015210 ) ) ;
#188 = EDGE_CURVE ( 'NONE', #51, #51, #37, .T. ) ;
#189 = DIRECTION ( 'NONE',  ( 0.0000000000000000000, 1.000000000000000000, 0.0000000000000000000 ) ) ;
#190 = FACE_OUTER_BOUND ( 'NONE', #26, .T. ) ;
#191 = AXIS2_PLACEMENT_3D ( 'NONE', #224, #53, #211 ) ;
#192 = FACE_OUTER_BOUND ( 'NONE', #84, .T. ) ;
#193 = EDGE_LOOP ( 'NONE', ( #126 ) ) ;
#194 = COORDINATED_UNIVERSAL_TIME_OFFSET ( 1, 0, .AHEAD. ) ;
#195 = PERSON_AND_ORGANIZATION ( #158, #79 ) ;
#196 = CARTESIAN_POINT ( 'NONE',  ( 0.0000000000000000000, 0.0000000000000000000, 0.0000000000000000000 ) ) ;
#197 = AXIS2_PLACEMENT_3D ( 'NONE', #11, #86, #189 ) ;
#198 = APPROVAL_ROLE ( '' ) ;
#199 = APPROVAL_STATUS ( 'not_yet_approved' ) ;
#200 = APPROVAL_DATE_TIME ( #59, #60 ) ;
#201 = APPROVAL_PERSON_ORGANIZATION ( #181, #147, #180 ) ;
#202 = ADVANCED_FACE ( 'NONE', ( #55, #67 ), #218, .T. ) ;
#203 = CLOSED_SHELL ( 'NONE', ( #182, #202, #231, #155 ) ) ;
#204 = CARTESIAN_POINT ( 'NONE',  ( 2.779219145719134403E-13, -7.189289034394536528E-15, 79.60000000000000853 ) ) ;
#205 = AXIS2_PLACEMENT_3D ( 'NONE', #35, #241, #217 ) ;
#206 = FACE_OUTER_BOUND ( 'NONE', #33, .T. ) ;
#207 = FACE_OUTER_BOUND ( 'NONE', #17, .T. ) ;
#208 = EDGE_CURVE ( 'NONE', #122, #122, #156, .T. ) ;
#209 = LOCAL_TIME ( 11, 4, 18.00000000000000000, #134 ) ;
#210 = CARTESIAN_POINT ( 'NONE',  ( 5.087145489906177669E-30, 7.926994942426019767E-31, 1.457016376777127920E-15 ) ) ;
#211 = DIRECTION ( 'NONE',  ( 0.0000000000000000000, 1.000000000000000000, 0.0000000000000000000 ) ) ;
#212 = ADVANCED_FACE ( 'NONE', ( #125, #169 ), #9, .T. ) ;
#213 = DIRECTION ( 'NONE',  ( -3.491481338843133355E-15, 9.031770143711729009E-17, -1.000000000000000000 ) ) ;
#214 = DATE_TIME_ROLE ( 'creation_date' ) ;
#215 = AXIS2_PLACEMENT_3D ( 'NONE', #196, #174, #19 ) ;
#216 = EDGE_LOOP ( 'NONE', ( #153 ) ) ;
#217 = DIRECTION ( 'NONE',  ( -1.899563749297372626E-30, 1.000000000000000000, -5.440566810896299180E-16 ) ) ;
#218 = CYLINDRICAL_SURFACE ( 'NONE', #205, 2.908999999999994479 ) ;
#219 = LOCAL_TIME ( 11, 4, 18.00000000000000000, #194 ) ;
#220 = ORIENTED_EDGE ( 'NONE', *, *, #160, .T. ) ;
#221 = DIRECTION ( 'NONE',  ( 0.0000000000000000000, 1.000000000000000000, 0.0000000000000000000 ) ) ;
#222 = APPROVAL ( #95, 'UNSPECIFIED' ) ;
#223 = DIRECTION ( 'NONE',  ( -3.491481338843133355E-15, -5.440566810896299180E-16, -1.000000000000000000 ) ) ;
#224 = CARTESIAN_POINT ( 'NONE',  ( 2.793185071074506684E-13, -7.225416114969383207E-15, 80.00000000000000000 ) ) ;
#225 = PRODUCT ( '321485', '321485', '', ( #23 ) ) ;
#226 = CC_DESIGN_APPROVAL ( #60, ( #28 ) ) ;
#227 = DIRECTION ( 'NONE',  ( 0.0000000000000000000, 1.000000000000000000, 0.0000000000000000000 ) ) ;
#228 = CALENDAR_DATE ( 2021, 26, 11 ) ;
#229 = DATE_AND_TIME ( #175, #18 ) ;
#230 = AXIS2_PLACEMENT_3D ( 'NONE', #149, #223, #145 ) ;
#231 = ADVANCED_FACE ( 'NONE', ( #206, #34 ), #75, .T. ) ;
#232 = DIRECTION ( 'NONE',  ( -3.491481338843133355E-15, 9.031770143711729009E-17, -1.000000000000000000 ) ) ;
#233 = FACE_OUTER_BOUND ( 'NONE', #139, .T. ) ;
#234 = AXIS2_PLACEMENT_3D ( 'NONE', #210, #32, #10 ) ;
#235 = CONICAL_SURFACE ( 'NONE', #130, 2.908999999999999364, 0.5235987755982931535 ) ;
#236 = CARTESIAN_POINT ( 'NONE',  ( 2.779219145719134403E-13, 1.999999999999988010, 79.60000000000000853 ) ) ;
#237 = ORIENTED_EDGE ( 'NONE', *, *, #22, .T. ) ;
#238 = CARTESIAN_POINT ( 'NONE',  ( 4.335520502660337123E-14, 6.755782622212098330E-15, 12.41742424462410810 ) ) ;
#239 = DIRECTION ( 'NONE',  ( -3.491481338843133355E-15, 9.031770143711729009E-17, -1.000000000000000000 ) ) ;
#240 = ADVANCED_FACE ( 'NONE', ( #242, #128 ), #89, .T. ) ;
#241 = DIRECTION ( 'NONE',  ( -3.491481338843133355E-15, -5.440566810896299180E-16, -1.000000000000000000 ) ) ;
#242 = FACE_OUTER_BOUND ( 'NONE', #184, .T. ) ;
#243 = CARTESIAN_POINT ( 'NONE',  ( 4.885231259955589808E-14, -1.263712492114123485E-15, 13.99185842870424956 ) ) ;
ENDSEC;
END-ISO-10303-21;
